Metsatoll - Ema Haal Kutsub tab

Part 1:

---7--7-----------7--7-----------------5---------------5--5/7--7---------|
---------5-8-5----------5-8-5-7--7-------8-7-8--5-7-8--------------------|
-------------------------------------------------------------------------|
-------------------------------------------------------------------------|
-------------------------------------------------------------------------|
-------------------------------------------------------------------------|


----------7--7---------------5---------------|
---5-8-5--------5-8-5-7--7-----8-7-5--5------|
---------------------------------------------|
---------------------------------------------|
---------------------------------------------|
---------------------------------------------|

Part 2:

---7--7--12-10-8-7--7--------------5---------------5--5/7--7--------7--7-|
-----------------------5-8-5-7--7----8-5-8--5-7-8-------------5-8-5------|
-------------------------------------------------------------------------|
-------------------------------------------------------------------------|
-------------------------------------------------------------------------|
-------------------------------------------------------------------------|



---------------5-----------------------------|
---5-8-5-7--7----8-7-5--5--------------------|
---------------------------------------------|
---------------------------------------------|
---------------------------------------------|
---------------------------------------------|

Part 3

-----------------------------------5---------------5--5/7--7--------7--7-|
---8--8--5-7-5--8--8--5-7-5--7--7----8-7-8--5-7-8-------------5-8-5------|
-------------------------------------------------------------------------|
-------------------------------------------------------------------------|
-------------------------------------------------------------------------|
-------------------------------------------------------------------------|



--------------5--------------------------------|
--5-8-5-7--7----8-7-5--5-----------------------|
-----------------------------------------------|
-----------------------------------------------|
-----------------------------------------------|
-----------------------------------------------|

Part 1 x2
Part 2
Part 3
Part 1
Part 2
Part 1 x2
Part 2
Part 3
Part 1
Part 2
End

Tab written by Tarzanoli.
Any corrections please comment. Thank you
Tap to rate this tab
 
# A B C D E F G H I J K L M N O P Q R S T U V W X Y Z