Song name
# A B C D E F G H I J K L M N O P Q R S T U V W X Y Z

Mew - Introducing Palace Players tab

This is played from 1:16 (0:22 in the radio version) and before this the first two rows 
played, with some modification. This should, however, be enough to get you started with 
song.


Part 1

|----------------|----------------|----------------|----------------|
|----------------|----------------|----------------|----------------|
|-----------2----|----------------|----0---0-----0-|---2------------|
|----0h5---------|0-------------0-|----------------|--------4-------|
|2-------2-----2-|--------2-------|2----------2----|2-----2---------|
|----------------|----------------|----------------|----------------|


|----------------|----------------|----------------|----------------|
|----------------|----------------|----------------|----------------|
|----0---0-------|-0--------------|----0---0-------|-0--------------|
|-------------0--|--------------0-|-------------0--|--------------0-|
|----------------|----------------|----------------|----------------|
|3---------3-----|3-------3-------|3---------3-----|3-------3-------|


|----------------|----------------|----------------|----------------|
|----------------|----------------|----------------|----------------|
|----------------|----------------|----------------|----------------|
|----2---2-4---0-|2-------------0-|----2---2-4---0-|----2---2p0-----|
|2---------------|----------------|0---------------|----------------|
|----------------|--3----3--------|----------------|3---------------|

Part 2

|----------------|----------------|----------------|----------------|
|----------------|----------------|----------------|----------------|
|-----------2----|----------------|----0---0-----0-|----------------|
|----0h5---------|0-------------0-|----------------|----4---2p0-----|
|2-------2-----2-|--------2-------|2----------2----|2---------------|
|----------------|----------------|----------------|----------------|


|----------------|----------------|----------------|----------------|
|----------------|----------------|----------------|----------------|
|-------------0--|-0--------------|----0---0-------|-0--------------|
|----0h5---------|--------------0-|-------------0--|--------------0-|
|----------------|----------------|----------------|----------------|
|3---------3-----|3-------3-------|3---------3-----|3-------3-------|


|----------------|----------------|----------------|----------------|
|----------------|----------------|----------------|----------------|
|----------------|----------------|----------------|----------------|
|----2---2-4---0-|2-------------0-|----2---2-4---0-|----2---2p0-----|
|2---------------|----------------|0---------------|----------------|
|----------------|--3----3--------|----------------|3---------------|
Tap to rate this tab
# A B C D E F G H I J K L M N O P Q R S T U V W X Y Z