Song name
# A B C D E F G H I J K L M N O P Q R S T U V W X Y Z

Mew - Coffee Break tab

E------------|-----------------------------------------------|
A------------|-----------------------------------------------|
D------------|-----------------------------------------------|
B------------|-------0------0-----------------0-------0------|
G-----0-----0|----1------1-----1---0-------0-------0-----0---|
E--2-----3---|--3------3----------3-3---1-------1------------|

E--------------------------------------------------------|
A--------------------------------------------------------|
D-----0---3------0---3-----0------0---3-------0---3---3--|
B-1-----------1---------1------1----------1--------------|
G--------------------------------------------------------|
E--------------------------------------------------------|

This is repeated twice, and on the third time the lyrics begin.
Tap to rate this tab
# A B C D E F G H I J K L M N O P Q R S T U V W X Y Z