Song name
# A B C D E F G H I J K L M N O P Q R S T U V W X Y Z

Mew - Saviours Of Jazz Ballet chords

By request, I tabbed this out. It's the chords I like to play along with the song.
Visit my youtube channel to see how this sounds along song (as well as other 
covers soon to come)! :D 
youtube.com/theaspiringguitarist

|----0---------0----------0-------------1----0--------------3--|
|----1---------3----------1-------------1----0--------------3--|
|----0---------0----------0-------------2----2--------------0--|
|----2---------4----------2-------------3-or-3--------------0--|
|----3---------5----------3-------------3----3--------------2--|
|----3---------5----------3-------------1----1--------------3--|
 We are the defenders of jazz ballet, people say when they see us

|----0---------0----------0-------------1----0--------------3----x|
|----1---------3----------1-------------1----0--------------3----3|
|----0---------0----------2-------------2----2--------------0----2|
|----2---------4----------2-------------3-or-3--------------0----0|
|----3---------5----------0-------------3----3--------------2----0|
|----3---------5----------0-------------1----1--------------3----x|
Hey folks! 
It's the  saviors of Jazz ballet   Fearless heroes of kick and spin

|--------------0----------0-------------1----------------------|
|--------------1----------0-------------3----------------------|
|--------------0----------2-------------2----------------------|
|--------------2----------3-------------0----------------------|
|--------------3----------3-------------0----------------------|
|----3--------------------1------------------------------------|

|--------------0-------------------0-------------------1----------------|
|----3---------1-------------------0-------------------3----------------|
|----2---------0-------------------2-------------------2----------------|
|----0---------2-------------------3-------------------0----------------|
|----0---------3-------------------3-------------------0----------------|
|--------3-------------------------1------------------------------------|
     Baby,  hear as they come, crawling on some black and dying tree

|--------------0-------------------0-------------------1---------3------|
|----3---------1-------------------0-------------------3---------3------|
|----2---------0-------------------2-------------------2---------0------|
|----0---------2-------------------3-------------------0---------0------|
|----0---------3-------------------3-------------------0---------2------|
|--------3-------------------------1-----------------------------3------|
Every night
peacefully
set the  world on fire every night  I      hear the red parade

|----0---------0----------0-------------1----0--------------3--|
|----1---------3----------1-------------1----0--------------3--|
|----0---------0----------0-------------2----2--------------0--|
|----2---------4----------2-------------3-or-3--------------0--|
|----3---------5----------3-------------3----3--------------2--|
|----3---------5----------3-------------1----1--------------3--|
Say we, by command of the microphone   Such is our    conviction

|----0---------0----------0-------------1----0--------------3----0|
|----1---------3----------1-------------1----0--------------3----2|
|----0---------0----------2-------------2----2--------------0----2|
|----2---------4----------2-------------3-or-3--------------0----2|
|----3---------5----------0-------------3----3--------------2----0|
|----3---------5----------0-------------1----1--------------3----x|
Make way 
 for the Saviours of Jazz Ballet,  Hollow hearts make for pleasant lives
Tap to rate this tab
# A B C D E F G H I J K L M N O P Q R S T U V W X Y Z