Song name
# A B C D E F G H I J K L M N O P Q R S T U V W X Y Z

Mew - Bamse Bear tab

Mew - Bamse (Bear)

So far (April 2010) this song is only to be heard live, and haven't been released in a 
yet.

The song is tabbed by ear, but it sounds right in my head :)


Standard melodyline goes like this:

E|-----------------------------------------------------------------------------------------------|
B|--12--9-7-9-7-----12--9-7-9-7-----12--9-7-9-7-----12--9-7-9-7------12--9-7-9-7------12--9-7-9-7|
G|9---------------8---------------6---------------8----------------6---------------8-------------|
D|-----------------------------------------------------------------------------------------------|
A|-----------------------------------------------------------------------------------------------|
E|-----------------------------------------------------------------------------------------------|


Towards the end the melody is the same but in a higher pitch, and can be played like this:

E|----19--16-14-16-14------19--16-14-16-14------19--16-14-16-14------19--16-14-16-14--|
B|-17-------------------16-------------------14------------------16-------------------|
G|------------------------------------------------------------------------------------|
D|------------------------------------------------------------------------------------|
A|------------------------------------------------------------------------------------|
E|------------------------------------------------------------------------------------|


E|-----19--16-14-16-14-------19--16-14-16-14--|
B|-14--------------------16-------------------|
G|--------------------------------------------|
D|--------------------------------------------|
A|--------------------------------------------|
E|--------------------------------------------|

Tabbed by Hallis
Tap to rate this tab
# A B C D E F G H I J K L M N O P Q R S T U V W X Y Z