Mew - Introducing Palace Players tab

-Introducing Palace Players-
-Mew-
-No More Stories / Are Told Today / I'm Sorry / They Washed Away // No More 
Stories / The World Is Grey / I'm Tired / Let's Wash Away-

Tabbed by Matt Wesdock (kidinemerica991@verizon.net)


Tuning: EADGBe

~ - Let ring/Vibrato
h - hammer on
p - pull off
/ - slide up
\ - slide down



---------------------------------------------------

Intro 1:

(0:00 - 0:54)


e-------------------------|---------|
B-------------------------|---------|
G-------------------------|---------|
D-------7--5-5/7--4-------|---------|
A-------5--7-7/9--5-------|---------|
E--7-7--------------------|--7-7-7--|

--------------------------------------------------

Intro 2:

(0:54 - 1:15)

e||---------------------------------------------|---------------------------------------------||
B||---------------------------------------------|---------------------------------------------||
G||---------------------------------------------|---------------------------------------------||
D||---0h7---7---------------5-5---5----7--------|---5-5-------h5^-----5---5-5-------h5^-------||
A||-------------5~-----5-------------------5~---|---------------------------------------------||
E||-7-----7---7----7-----7-------7---7---7------|-3-----3-0h3----3------3-----3-0h3------3----||





e||---------------------------------------------|---------------------------------------||
B||---------------------------------------------|---------------------------------------||
G||---------------------------------------------|---------------------------------------||
D||-----0h7---7--------------5-5---5---7--------|---0h7---7---0-----0---0h9---9---0-----||
A||-5-------------5~-----5-----------------5~---|---------------------------------------||
E||---7-----7---7----7-----7-----7---7---7------|-9-----9---9---9-----9-----9---9---9\--||

--------------------------------------------------

Intro 3:

(1:15 - 1:30)



e||------------------------------------------|-------------------------------------------||
B||------------------------------------------|-------------------------------------------||
G||------------------------------------------|-------------------------------------------||
D||---0h7---7--------------5--5---5---7---4~-|---5-5-------h5^-----5---5-5-------h5^-----||
A||-------------5~-----5---------------------|-------------------------------------------||
E||-7-----7---7----7-----7------7---7---7----|-3-----3-0h3-----3-----3-----3-0h3-----3---||

e||------------------------------------------------||
B||------------------------------------------------||
G||------------------------------------------------||
D||-------2-2/4--0-2-------------2-2/4-0---2-2p0---||
A||-----2------------------------------------------||
E||-2-0--------------2~-2~---2-0---------0---------||


(1:31 - 1:46)

e||------------------------------------------|--------------------------------------------||
B||------------------------------------------|--------------------------------------------||
G||------------------------------------------|--------------------------------------------||
D||---0h7---7--------------5-5----5---4------|---0h5---5-----h5^-----5---5-5-------h5^----||
A||-------------5~-----5----------------7p5--|--------------------------------------------||
E||-7-----7---7----7-----7------7---7--------|-3-----3---0h3-----3-----3-----3-0h3-----3--||

e||------------------------------------------------||
B||------------------------------------------------||
G||------------------------------------------------||
D||-------2-2/4--0-2-------------2-2/4-0---2-2p0---||
A||-----2------------------------------------------||
E||-2-0--------------2~-2~---2-0---------0---------||



-----------------------------------------------------

Verse 1:

(1:47- 2:17)


e||------------------------------------------|-------------------------------------------||
B||------------------------------------------|-------------------------------------------||
G||------------------------------------------|-------------------------------------------||
D||---0h7---7--------------5--5---5---7---4~-|---5-5-------h5^-----5---5-5-------h5^-----||
A||-------------5~-----5---------------------|-------------------------------------------||
E||-7-----7---7----7-----7------7---7---7----|-3-----3-0h3-----3-----3-----3-0h3-----3---||

e||------------------------------------------------||
B||------------------------------------------------||
G||------------------------------------------------||
D||-------2-2/4--0-2-------------2-2/4-0---2-2p0---||
A||-----2------------------------------------------||
E||-2-0--------------2~-2~---2-0---------0---------||

e||------------------------------------------|--------------------------------------------||
B||------------------------------------------|--------------------------------------------||
G||------------------------------------------|--------------------------------------------||
D||---0h7---7--------------5-5----5---4------|---0h5---5-----h5^-----5---5-5-------h5^----||
A||-------------5~-----5----------------7p5--|--------------------------------------------||
E||-7-----7---7----7-----7------7---7--------|-3-----3---0h3-----3-----3-----3-0h3-----3--||

e||------------------------------------------------||
B||------------------------------------------------||
G||------------------------------------------------||
D||-------2-2/4--0-2-------------2-2/4-0---2-2-----||
A||-----2--------------------------------------22--||
E||-2-0--------------2~-2~---2-0---------0---------||


------------------------------------------------------

Chorus (x2):

(2:17 - 2:39)


e||--------------------------------------------------------------------------------||
B||--------------------------------------------------------------------------------||
G||-------------------------------------------------2-0----------------------------||
D||-----------4444-7777-4------44444-77777--2p0----------4\2------9----11----4-----||
A||----------------------------------------------------------------------------22--||
E||-7--777777-------------77-7---------------------------------77---99----22-------||


------------------------------------------------------

Verse 2:

(2:39 - 3:09)


e||------------------------------------------|-------------------------------------------||
B||------------------------------------------|-------------------------------------------||
G||------------------------------------------|-------------------------------------------||
D||---0h7---7--------------5--5---5---7---4~-|---5-5-------h5^-----5---5-5-------h5^-----||
A||-------------5~-----5---------------------|-------------------------------------------||
E||-7-----7---7----7-----7------7---7---7----|-3-----3-0h3-----3-----3-----3-0h3-----3---||

e||------------------------------------------------||
B||------------------------------------------------||
G||------------------------------------------------||
D||-------2-2/4--0-2-------------2-2/4-0---2-2p0---||
A||-----2------------------------------------------||
E||-2-0--------------2~-2~---2-0---------0---------||

e||------------------------------------------|--------------------------------------------||
B||------------------------------------------|--------------------------------------------||
G||------------------------------------------|--------------------------------------------||
D||---0h7---7--------------5-5----5---4------|---0h5---5-----h5^-----5---5-5-------h5^----||
A||-------------5~-----5----------------7p5--|--------------------------------------------||
E||-7-----7---7----7-----7------7---7--------|-3-----3---0h3-----3-----3-----3-0h3-----3--||

e||------------------------------------------------||
B||------------------------------------------------||
G||------------------------------------------------||
D||-------2-2/4--0-2-------------2-2/4-0---2-2p0---||
A||-----2------------------------------------------||
E||-2-0--------------2~-2~---2-0---------0---------||


-----------------------------------------------------------

Chorus (x4):

(3:09 - 3:50)

e||-----------------------------------------------------------------------------||
B||-----------------------------------------------------------------------------||
G||-------------------------------------------------2-0-------------------------||
D||-----------4444-7777-4------44444-77777--2p0----------4\2-----9---11---4-----||
A||-------------------------------------------------------------------------22--||
E||-7--777777-------------77-7---------------------------------7---9----2-------||


-----------------------------------------------------------

Outro, Part 1:

(3:50 - 4:05)


    F#5        A5     G5       F#5    A5  C#5         G5
e||---------------------------------------------------------------||
B||---------------------------------------------------------------||
G||---------------------------------------------------------------||
D||-4-4-444\---7-7\---5-5-5\---4-4-4-/7-7-11-11-11\---5-5-5\------||
A||-4-4-444\---7-7\---5-5-5\---4-4-4-/7-7-11-11-11\---5-5-5\------||
E||-2-2-222\---5-5\---3-3-3\---2-2-2-/5-5-9--9--9-\---3-3-3\------||


Outro, Part 2:

(4:05 - 4:09)

    F#5   B5  A5     
e||------------------||
B||------------------||
G||------------------||
D||-4-4-4/9-9\7-7\---||
A||-4-4-4/9-9\7-7\---||
E||-2-2-2/7-7\5-5\---||

Outro, Part 3:

(4:09 - 4:20)

    G5       F#5   A5  C#5         G5
e||-----------------------------------------||
B||-----------------------------------------||
G||-----------------------------------------||
D||-5-5-5\---4-4-4/7-7/11-11-11\---5-5-5\---||
A||-5-5-5\---4-4-4/7-7/11-11-11\---5-5-5\---||
E||-3-3-3\---2-2-2/5-5/9--9--9-\---3-3-3\---||


Outro, Part 4:

(4:20 - 4:46)

    F#5   A5  C#5         C#5	A5          G4  B5    A5	G5        F#5   B5    A5 
e||----------------------------------------------------------------------------------------||
B||----------------------------------------------------------------------------------------||
G||----------------------------------------------------------------------------------------||
D||-4-4-4/7-7/11-11-11\---11\---7-7-7-7-7-7-5-5-9-9-9-7-7-7-7-7-5-5-5-5-5-4-4-4-9-9-9-7~---||
A||-4-4-4/7-7/11-11-11\---11\---7-7-7-7-7-7-5-5-9-9-9-7-7-7-7-7-5-5-5-5-5-4-4-4-9-9-9-7~---||
E||-2-2-2/5-5/9--9--9-\---9-\---5-5-5-5-5-5-3-3-7-7-7-5-5-5-5-5-3-3-3-3-3-2-2-2-7-7-7-5~---||

	               ^This is when all the chords start to be played as 8th notes on the up-beat



END
Tap to rate this tab
 
# A B C D E F G H I J K L M N O P Q R S T U V W X Y Z