Mew - Repeater Beater tab

****************************************************************************

                          Mew - RepeaterBeater
    No more stories are told today / i'm sorry they washed away / no more
        stories / the world is grey / i'm tired / let's wash away

****************************************************************************

 Tuning :- eb    < Half a step down to make use of the open Gb
           Bb    
           Gb
           Db
           Ab
           Eb

****************************************************************************

                                  Intro

|-----------------|------------------|----------------|---------3------|
|-----------------|------------------|----------------|---------3------|
|--12/s/----------|--12/s/-----------|--12/s/---------|--12/s/--3------|
|----------5-5-5--|---------5-5-5-5--|---------5-5-5--|---------5------|
|--10/s/---5-5-5--|--10/s/--5-5-5-5--|--10/s/--5-5-5--|--10/s/--6------|
|----------3-3-3--|---------3-3-3-3--|---------3-3-3--|---------3------|

      t     t     t     t
|-------------------------|     < here and throughout tapping parts the 0s 
|--h--3--h--3--h--3--h--3-|       are picked, the next note is hammered(h)
|-0-3---0-3---0-3---0-3---|       and the highest notes are tapped with the
|-------------------------|       fretting hand(t)
|-------------------------|    
|-------------------------| (x4)


                               Verse


|-------------------------||---------------------------||
|-----3-----3-----3-----3-||------4-----4-----4-----4--||
|-0-3---0-3---0-3---0-3---||.-0-3---0-3---0-3---0-3---.||
|-------------------------||.-------------------------.||
|-------------------------||---------------------------||
|-------------------------||---------------------------||x3

                              *
||---------------------------||-------------|------------------------|
||------6-----6-----6-----6--||-----6-----6-|-----3-----3----3-----3-|
||.-0-7---0-7---0-7---0-7---.||-0-7---0-7---|-0-3---0-3---0-3--0-3---|
||.-------------------------.||-------------|------------------------|
||---------------------------||-------------|------------------------|
||---------------------------||(x2)---------|------------------------|

*This bar is 2/4 before moving back to 4/4 ts


                               Chorus
                                                                    
|---6---6---6-|---6---5---|-5-----6---6-|-------------|-------------|-----|
|-------------|-----------|-----6-------|---6---6---6-|-------------|-----|
|-7---7---7---|-7---7---7-|---7-----7---|-7---7---7---|---7---h---8-|-----|
|-------------|-----------|-------------|-------------|-7----7-8----|-----|
|-------------|-----------|-------------|-------------|-------------|-----|
|-------------|-----------|-------------|-------------|-------------|-----|
                                                             

Tap to rate this tab
 
# A B C D E F G H I J K L M N O P Q R S T U V W X Y Z