Mew - Repeater Beater tab

-------------------------------------------------------------------------------
			     Repeater Beater - Mew
-------------------------------------------------------------------------------
Tabbed by: Jesse Manschot

Tuning: Standard


Intro:
e|---------------------------------------------------------------------------|
B|---------------------------------------------------------------------------|
G|-11\----------11\-----------11\--------11\---------------------------------|
D|-------4-4-4------4-4-4--4-------4-4-4-----4-4--4~-------------------------|
A|-9\-----------9\------------9\---------9\--5-5--5~-------------------------|
E|-------2-2-2------2-2-2--2-------2-2-2-------------------------------------|


Verse:
Place your left hand forefinger on the 4th fret, you use your ringfinger or 
pinky of the same hand to hammer-on the 7th fret. And with your righthand you 
hammer-on and pull-off the 11th, 12th and 14th fret.
Listen to the song for the correct timing.

e|---------------------------------------------------------------------------|
B|---------------------------------------------------------------------------|
G|---------------------------------------------------------------------------|
D|-(11)p4-h7-h11p4-h7-h11p4-h7-h11p4-h7-h11p4-h7-h11p4-h7-h11p4-h7-h11p4-h7--|
A|---------------------------------------------------------------------------|
E|---------------------------------------------------------------------------|


e|---------------------------------------------------------------------------|
B|---------------------------------------------------------------------------|
G|---------------------------------------------------------------------------|
D|-h12p4-h7-h12p4-h7-h12p4-h7-h12p4-h7-h12p4-h7-h12p4-h7-h12p4-h7-h12p4-h7---|
A|---------------------------------------------------------------------------|
E|---------------------------------------------------------------------------|


e|---------------------------------------------------------------------------|
B|---------------------------------------------------------------------------|
G|---------------------------------------------------------------------------|
D|-h14p4-h7-h14p4-h7-h14p4-h7-h14p4-h7-h14p4-h7-h14p4-h7-h14p4-h7-h14p4-h7---|
A|---------------------------------------------------------------------------|
E|---------------------------------------------------------------------------|


Chorus:
e|---------------------------------------------------------------------------|
B|----10~---10~---10~---10~---9~----9~---------------------------------------|
G|----------------------------------------9~-----9~------9~-----9~-----------|
D|--------------------------------------7------------------------------------|
A|-(9)---(9)---(9)---(9)---(9)---(9)---------(9)------(9)----(9)-------------|
E|---------------------------------------------------------------------------|


The (9)'s are played kind of muted, you barely hear them in the song but they
are there if you listen very closely.


e|---------------------------------------------------------------------------|
B|---------------------------------------------------------------------------|
G|---------------------------------------------------------------------------|
D|-7-11---11~-------11-12----12----------------------------------------------|
A|-----(9)------(9)-------------12~~~----------------------------------------|
E|---------------------------------------------------------------------------|


2nd Chorus variation:
e|---------------------------------------------------------------------------|
B|---------------------------------------------------------------------------|
G|---------------------------11----------------------------------------------|
D|-7-11---11~-------11-12----------------------------------------------------|
A|-----(9)-------(9)-----------12~~~-----------------------------------------|
E|---------------------------------------------------------------------------|


End with intro.



| /  slide up
| \  slide down
| h  hammer-on
| p  pull-off
| ~  vibrato
| +  harmonic
| x  Mute note
===============================================================================

Tap to rate this tab
 
# A B C D E F G H I J K L M N O P Q R S T U V W X Y Z