Song name
# A B C D E F G H I J K L M N O P Q R S T U V W X Y Z

Mew - Special tab

Mew - Special (And The Glass Handed Kites...)


Tuning (from low to high): G Eb G Bb Eb G


Riff.
                   
G |---------------------------|---------------------------|
Eb|--------0------------0-----|--------0------------0-----|
Bb|---7-7----7-------7----7---|---4-4------4---4-4----0---|
G |------5-----5---5--5-----5-|------3---3--------3-----0-|
Eb|---------------------------|---------------------------|
G |-5------------5------------|-0------------0------------|

G |---------------------------|---------------------------|
Eb|--------0------------0-----|--------0------------0-----|
Bb|-----4----4-------4----4---|---4-4------4---4-4----0---|
G |---5--5-----5---5--5-----5-|------3---3--------3-----0-|
Eb|---------------------------|---------------------------|
G |-5------------5------------|-0------------0------------|
Tap to rate this tab
# A B C D E F G H I J K L M N O P Q R S T U V W X Y Z