Guitaretab - guitar tabs
Song name
# A B C D E F G H I J K L M N O P Q R S T U V W X Y Z

Mew - Comforting Sounds tab

Note: You're probably going to have to listen and play with it first. 

|---------------------------------------------------------|
|---------------------------------------------------------|
|---------------------------------------------------------|
|---------11-----------11----------11-----------11--------|
|---12-12-----12-12-12----12-12-12-----12-12-12----12-----|
|---------------------------------------------------------|

|---------------------------------------------------------|
|---------------------------------------------------------|
|---------------------------------------------------------|
|-------6-------6--------6--------6-----------------------|
|---7-7---7-7-7----7-7-7----7-7-7----7--------------------|
|---------------------------------------------------------|

|---------------------------------------------------------|
|---------------------------------------------------------|
|---------------------------------------------------------|
|-------4--------4--------4-------4-----------------------|
|---5-5----5-5-5----5-5-5---5-5-5---5---------------------|
|---------------------------------------------------------|

|---------------------------------------------------------|
|---------------------------------------------------------|
|---------------------------------------------------------|
|---11-11----11-11-11----11-11-11----11-11-11---11--------|
|---12-12----12-12-12----12-12-12----12-12-12---12--------|
|---------------------------------------------------------|

|---------------------------------------------------------|
|---------------------------------------------------------|
|---------------------------------------------------------|
|---6-6----6-6-6----6-6-6----6-6-6---6--------------------|
|---7-7----7-7-7----7-7-7----7-7-7---7--------------------|
|---------------------------------------------------------|  

|---------------------------------------------------------|
|-------3--------3--------3--------3----------------------|
|---------------------------------------------------------|
|---4-4----4-4-4----4-4-4----4-4-4----4-------------------|
|---5-5----5-5-5----5-5-5----5-5-5----5-------------------|
|---------------------------------------------------------|

|---------------------------------------------------------|
|--------9---------9---------9--------9-------------------|
|---------------------------------------------------------|
|---6-6----6-6-6----6-6-6----6-6-6----6-------------------|
|---7-7----7-7-7----7-7-7----7-7-7----7-------------------|
|---------------------------------------------------------|

|---------------------------------------------------------|
|---------10----------10----------10----------10----------|
|---------------------------------------------------------|
|---11-11----11-11-11----11-11-11----11-11-11----11-------|
|---12-12----12-12-12----12-12-12----12-12-12----12-------|
|---------------------------------------------------------|

|---------------------------------------------------------|
|-------5--------5--------5--------5----------------------|
|---------------------------------------------------------|
|---6-6----6-6-6----6-6-6----6-6-6----6-------------------|
|---7-7----7-7-7----7-7-7----7-7-7----7-------------------|
|---------------------------------------------------------|

|---------------------------------------------------------|
|-------3--------3--------3--------3----------------------|
|---------------------------------------------------------|
|---4-4----4-4-4----4-4-4----4-4-4----4-------------------|
|---5-5----5-5-5----5-5-5----5-5-5----5-------------------|
|---------------------------------------------------------|

|---------------------------------------------------------|
|---------------------------------------------------------|
|---------------------------------------------------------|
|---11-11----11-11-11----11-11-11----11-11-11---11--------|
|---12-12----12-12-12----12-12-12----12-12-12---12--------|
|---------------------------------------------------------|

|---------------------------------------------------------|
|---------------------------------------------------------|
|---------------------------------------------------------|
|---6-6----6-6-6----6-6-6----6-6-6---6--------------------|
|---7-7----7-7-7----7-7-7----7-7-7---7--------------------|
|---------------------------------------------------------|

|---------------------------------------------------------|
|-------3--------3--------3--------3----------------------|
|---------------------------------------------------------|
|---4-4----4-4-4----4-4-4----4-4-4----4-------------------|
|---5-5----5-5-5----5-5-5----5-5-5----5-------------------|
|---------------------------------------------------------|

I don't feel alright
|---------------------------------------------------------|
|---------10----------10----------10----------10----------|
|---------------------------------------------------------|
|---11-11----11-11-11----11-11-11----11-11-11----11-------|
|---12-12----12-12-12----12-12-12----12-12-12----12-------|
|---------------------------------------------------------|
[ Tab from: http://www.guitaretab.com/m/mew/47974.html ]
Inspite of these comforting
|---------------------------------------------------------|
|-------5--------5--------5--------5----------------------|
|---------------------------------------------------------|
|---6-6----6-6-6----6-6-6----6-6-6----6-------------------|
|---7-7----7-7-7----7-7-7----7-7-7----7-------------------|
|---------------------------------------------------------|

sounds you make
|---------------------------------------------------------|
|-------3--------3--------3--------3----------------------|
|---------------------------------------------------------|
|---4-4----4-4-4----4-4-4----4-4-4----4-------------------|
|---5-5----5-5-5----5-5-5----5-5-5----5-------------------|
|---------------------------------------------------------|

I don't feel alright
|---------------------------------------------------------|
|---------10----------10----------10----------10----------|
|---------------------------------------------------------|
|---11-11----11-11-11----11-11-11----11-11-11----11-------|
|---12-12----12-12-12----12-12-12----12-12-12----12-------|
|---------------------------------------------------------|

because you make promises
|---------------------------------------------------------|
|-------5--------5--------5--------5----------------------|
|---------------------------------------------------------|
|---6-6----6-6-6----6-6-6----6-6-6----6-------------------|
|---7-7----7-7-7----7-7-7----7-7-7----7-------------------|
|---------------------------------------------------------|

that you break
|---------------------------------------------------------|
|-------3--------3--------3--------3----------------------|
|---------------------------------------------------------|
|---4-4----4-4-4----4-4-4----4-4-4----4-------------------|
|---5-5----5-5-5----5-5-5----5-5-5----5-------------------|
|---------------------------------------------------------|

A         C#m
Into your house
             Bm        D
Why don't we share our solitude?
A         C#m   Bm          D
Nothing is pure anymore but solitude

It's hard to make sense
|---------------------------------------------------------|
|---------10----------10----------10----------10----------|
|---------------------------------------------------------|
|---11-11----11-11-11----11-11-11----11-11-11----11-------|
|---12-12----12-12-12----12-12-12----12-12-12----12-------|
|---------------------------------------------------------|

Feels as if I'm sensing you
|---------------------------------------------------------|
|-------5--------5--------5--------5----------------------|
|---------------------------------------------------------|
|---6-6----6-6-6----6-6-6----6-6-6----6-------------------|
|---7-7----7-7-7----7-7-7----7-7-7----7-------------------|
|---------------------------------------------------------|

through a lens
|---------------------------------------------------------|
|-------3--------3--------3--------3----------------------|
|---------------------------------------------------------|
|---4-4----4-4-4----4-4-4----4-4-4----4-------------------|
|---5-5----5-5-5----5-5-5----5-5-5----5-------------------|
|---------------------------------------------------------|

If someone else comes
|---------------------------------------------------------|
|---------10----------10----------10----------10----------|
|---------------------------------------------------------|
|---11-11----11-11-11----11-11-11----11-11-11----11-------|
|---12-12----12-12-12----12-12-12----12-12-12----12-------|
|---------------------------------------------------------|

I'll just sit here listening
|---------------------------------------------------------|
|-------5--------5--------5--------5----------------------|
|---------------------------------------------------------|
|---6-6----6-6-6----6-6-6----6-6-6----6-------------------|
|---7-7----7-7-7----7-7-7----7-7-7----7-------------------|
|---------------------------------------------------------|

To the drums
|---------------------------------------------------------|
|-------3--------3--------3--------3----------------------|
|---------------------------------------------------------|
|---4-4----4-4-4----4-4-4----4-4-4----4-------------------|
|---5-5----5-5-5----5-5-5----5-5-5----5-------------------|
|---------------------------------------------------------|

A      C#m         Bm        D
Previously I never called it solitude
A
And probably you know all the dirty shows I've put on
C#m
Blunted and exhausted like anyone
                    Bm
Honestly I tried to avoid it
D
Honestly
A
Back when we were kids, we would always know when to stop
C#m
And now all the good kids are messing up
Bm                   D               A
Nobody has gained or accomplished anything

A   C#m   Bm   Em   Bm
A   C#m   Bm   Em   Bm
F#   Em

This section is repeated about four times
A   (D)   E   (D)   E
Gm   F#   (E)
A   (D)   F#   (E)   Gm   F#m   (E)
A   (D)   F#   (E)   Bm   C#m   Bm    (D)

Ending - Note: You can play this in different ways. Choose one of the three below. 


Bo's way (this one might sound weird without the other instruments)
|---0--------|
|---14-------|
|---13-------|
|---11-------|
|---12-------|
|------------|

OR

this way works fine
|---5-------|
|---5-------|
|---6-------|
|---7-------|
|---7-------|
|---5-------|

OR

A
Related for Comforting Sounds tab
×
Comforting Sounds