Song name
# A B C D E F G H I J K L M N O P Q R S T U V W X Y Z

Mew - Zookeepers Boy tab

Help us improve GuitareTab! Take a short survey!
SONG: The Zookeepers Boy
INTRO: Mew

-----------------------------------------------------------------------------|
-----------------------------------------------------------------------------|
-----------------------------------------------------------------------------|
-----------------------------------------------------------------------------|
-------------6---------6--------7--------------------------------------------|
-----4------------4-------4-4------4--2-----4--2--4--------------------------|

---------------------------------------------------------------------------------|
---------------------------------------------------------------------------------|
---------------------------------------------------------------------------------|
-----------------------------------------------------9---------------------------|
----------------7--------7-------7-----7-------7---------------------------------|
----4-4-4-4-------4--------4------4------4---------------------------------------|
2nd time is almost the same. But not 100% try on your own.


And then play: E, C#m, H.

Chorus: G#, C#, Fm, Cm

Verse: Fm, Eb, C#

And the middle part: Bb, Gm, Eb

And remember: Mew is the best band in the world!!!

Small Faults may appears

Tabs by Kristoffer            Denmark
Related for Zookeepers Boy tab