Song name
# A B C D E F G H I J K L M N O P Q R S T U V W X Y Z

Mew - Zookeeper Boy tab

Help us improve GuitareTab! Take a short survey!
Tuning: Db Ab Db Gb Bb Db

Ok the rythym, timing, everthing like that isn't tabbed exactly right, but it is easy
enough to work it out by playing along to the Cd.  The notes they use in the intro
are tabbed exactly right though.  The rest of the song to follow!

----------------------------------------------------------------------------|
----------------------------------------------------------------------------|
----------------------------------------------------------------------------|
--------------------4-------------------------------------------------------|
----------------------7-6------------------------2-2-2----------------------|
--7-7-7--7-7-7--7-7--------5-5-5--0-2-0-3-3-3-3-3---------------------------|

----------------------------------------------------------------------------|
----------------------------------------------------------------------------|
----------------------------------------------------------------------------|
----------------------4-----------------------------------------------------|
------------------------2-1-----------------------2-2-2---------------------|
--7-7-7--7-7-7--7-7---------5-5-5--0-2-0-3-3-3-3----------------------------|

----------------------------------------------------------------------------|
----------------------------------------------------------------------------|
----------------------------------------------------------------------------|
--------------------6-4-3----------2---4-4-4-4-6-7-6------------------------|
--------------------------4-4-4--2---2--------------------------------------|
-3-3-3--3-3-3--3-3----------------------------------------------------------|

----------------------------------------------------------------------------|
----------------------------------------------------------------------------|
----------------------------------------------------------------------------|
--------------------6-4-3----------2---4-4-4-4-6-7-6------------------------|
--------------------------4-4-4--2---2--------------------------------------|
-3-3-3--3-3-3--3-3------------------------------------2-2-2-----------------|
Related for Zookeeper Boy tab