Song name
# A B C D E F G H I J K L M N O P Q R S T U V W X Y Z

Mew - Snowflake tab

Note: This song basically just uses the same notes over and over. The stroke pattern for 
note is down-down-down-up-down-up-down-up-down, but you should to listen to the song to 
how the pattern really works. Also, the tab is not exact.

s = slide

Intro:
|---9------x------9------x---|
|---7------5------7------5---|
|---7------6------7------6---|
|---7------7------7------7---|
|---9------4------9------4---|
|---x------x------x------x---|


   Tonight I won't say tonight it's ok
|---9--------------x----9------------x---|
|---7--------------5----7------------5---|
|---7--------------6----7------------6---|
|---7--------------7----7------------7---|
|---9--------------4----9------------4---|
|---x--------------x----x------------x---|

Always had a feeling it would pass
Never ever thought it'd be this
|---9------|
|---7------|
|---7------|
|---7------|
|---9------|
|---x------|

way
|---x------|
|---5------|
|---6------|
|---7------|
|---4------|
|---x------|


Still I keep in mind that snow is safe
Safer than it was two years
|---9------|
|---7------|
|---7------|
|---7------|
|---9------|
|---x------|

ago
|---x------|
|---5------|
|---6------|
|---7------|
|---4------|
|---x------|


|---9------x------9------x---|
|---7------5------7------5---|
|---7------6------7------6---|
|---7------7------7------7---|
|---9------4------9------4---|
|---x------x------x------x---|


   Tonight I won't say tonight it's ok
|---9--------------x----9------------x---|
|---7--------------5----7------------5---|
|---7--------------6----7------------6---|
|---7--------------7----7------------7---|
|---9--------------4----9------------4---|
|---x--------------x----x------------x---|

Always had a feeling it would pass
Never ever thought it'd be this
|---9------|
|---7------|
|---7------|
|---7------|
|---9------|
|---x------|

way
|---x------|
|---5------|
|---6------|
|---7------|
|---4------|
|---x------|


Still I keep in mind that snow is safe
Safer than it was
Always had a choice
|---9------|
|---7------|
|---7------|
|---7------|
|---9------|
|---x------|


choice but I cannot be
|---x------|
|---5------|
|---6------|
|---7------|
|---4------|
|---x------|


mislead like that
|---9------|
|---7------|
|---7------|
|---7------|
|---9------|
|---x------|

E  A  E  A  E  A  E  A
|---x------9------x------9---|
|---5------7------5------7---|
|---6------7------6------7---|
|---7------7------7------7---|
|---4------9------4------9---|
|---x------x------x------x---|

   Tonight I won't say tonight it's ok
|---9--------------x----9------------x---|
|---7--------------5----7------------5---|
|---7--------------6----7------------6---|
|---7--------------7----7------------7---|
|---9--------------4----9------------4---|
|---x--------------x----x------------x---|

Ending:
|---x------|
|---5s4----|
|---6------|
|---7------|
|---4------|
|---x------|
Tap to rate this tab
# A B C D E F G H I J K L M N O P Q R S T U V W X Y Z