Song name
# A B C D E F G H I J K L M N O P Q R S T U V W X Y Z

Mew - Snow Brigade tab

Highlighted       Show chord diagrams
Mew - Snow Brigade

These are the main chords. As the song is much more complex, this is just a vague 
trying to tab it for an acoustic guitar.

Verse:
 Am			F
Enable to bring out the something
   	    G		     Dm
You want to know beneath the snow
    Am		     F
In winter youŽre an affiction
      	      G		  Dm  Am
That repeatedly defeated me, but


Chorus:
F             Am       G
IŽll find you somewhere
Em    	     F
Show you how much I care
(F)             C    G  Em
Know that there is no   escape
	F 	      G
from my snow brigade


Verse:
               F
Bring out the someone
            G              Dm   Am
You need to see for jealousy
   (Am)                    F
We all know one day youŽll leave behind
              G
Your everything
               Dm    Am
And feel the spring come


Chorus:
    F              Am      G
Cos IŽll find you somewhere
Em           F
Show you how much I care
(F)             C    G  Em
Know that there is no   escape
        F
from my snow brigade

Bridge

e|---------------------------------------|
B|---------------------------------------|
G|5-5-5-5--5\0-0-0-0-2-2-2-2/9-----------|
D|7-7-7-7--7\2-2-2-2-3-3-3-3/10----------|
A|---------------------------------------|
E|---------------------------------------|	\
						   x3
e|---------------------------------------|	/
B|---------------------------------------|
G|5-5-5-5--2-2-2-2--4-4-4-4--0-0-0-2--0--|
D|7-7-7-7--3-3-3-3--5-5-5-5--2-2-2-3--2--|
A|---------------------------------------|
E|---------------------------------------|

My arms retreat

I wish they were there to hold you


Am  G


Chorus: x7
F             Am       G
IŽll find you somewhere
Em    	     F
Show you how much I care
(F)             C    G  Em
Know that there is no   escape
	F
from my snow brigade


Tabbed by ole-indiekid.
Comments are more than welcome!
Tap to rate this tab
 
# A B C D E F G H I J K L M N O P Q R S T U V W X Y Z