Guitaretab - guitar tabs
Song name
# A B C D E F G H I J K L M N O P Q R S T U V W X Y Z

Mewithoutyou - Tie Me Up Untie Me tab

-------------------------------------------------------------------------------
			     SONG NAME - Band Name
-------------------------------------------------------------------------------
Tabbed by: David Hirotsu
Email: kowchxpteito@gmail.com

Tuning: d a d g b e

i noticed it wasnt on here
so i wrote a tab for other to have a starting point
first tab ever

00:19

|------------------------------------------------------------------|
|----------8---7----7-----------------------------8----7----7------|
|----9--------------------x--7--7---9---------9--------------------|
|--------------------------------------9--x------------------------|
|------------------------------------------------------------------|
|------------------------------------------------------------------|

|------------------------------------------------------------------|
|----------8---7----7-----------------------------8----7----7------|
|----9--------------------x--7--7---9---------9--------------------|
|--------------------------------------9--x------------------------|
|------------------------------------------------------------------|
|------------------------------------------------------------------|


----X---7--x-7/------------------------------------------------|
----X---7--x-7/------------------------------------------------|
----X---7-x-7/------------------------------------------------|
----------------------------------------------------------------|
----------------------------------------------------------------|
----------------------------------------------------------------| X7

|--------------------------------------------------------------|
|--------------------------------------------------------------|
|-------12-X?----11?-------12h14p12----------14h16p14----------|
|-------14-X?----12?------------------14-------------------14--|
|--------------------------------------------------------------|
|--------------------------------------------------------------|

|----------------------------------------------------------------|
|----------------------------------------------------------------|
|----------------------------------------------------------------|
|-------14--14--14---14-----17--16-16-16------12-12-12-14-14-14--|
|----------------------------------------------------------------|
|----------------------------------------------------------------|

Repeat a few times
|--------------------------------------------|
|--------------------------------------------|
|--------------------------------------------|
|-----------12--------12-------1214---------|
|------14--------14-------14-----------------|
|--------------------------------------------|X4

[ Tab from: http://www.guitaretab.com/m/mewithoutyou/102751.html ]
|------------------------------------------------------------------|
|----------8---7----7-----------------------------8----7----7------|
|----9--------------------x--7--7---9---------9--------------------|
|--------------------------------------9--x------------------------|
|------------------------------------------------------------------|
|------------------------------------------------------------------|

----X---7--x-7/------------------------------------------------|
----X---7--x-7/------------------------------------------------|
----X---7-x-7/------------------------------------------------|
----------------------------------------------------------------|
----------------------------------------------------------------|
----------------------------------------------------------------|

|------------------------------------------------------------------|
|----------8---7----7-----------------------------8----7----7------|
|----9--------------------x--7--7---9---------9--------------------|
|--------------------------------------9--x------------------------|
|------------------------------------------------------------------|
|------------------------------------------------------------------|
repeat


|--------------------------------------------------------------|
|--------------------------------------------------------------|
|-------12-X?----11?-------12h14p12----------14h16p14----------|
|-------14-X?----12?------------------14-------------------14--|
|--------------------------------------------------------------|
|--------------------------------------------------------------|

|----------------------------------------------------------------------|
|----------------------------------------------------------------------|
|----------------------------------------------------------------------|
|-------14--14--14---14-----17------16-----1417---16----14---17---16--|
|----------------------------------------------------------------------|
|----------------------------------------------------------------------|

feeedbaccccckkkkkkkkkkkkkkkkkkkkkkkk


|------------------|
|------------------|
|-----------5---4--|
|-------2---5---4--|
|-------2---3---2--|
|-------2----------|


|----------------------------------------------------------------------------|
|----------------------------------------------------------------------------|
|9------14-------12------9--------19-----17-----14----9~~~~~-----------------|
|----------------------------------------------------------------------------|
|----------------------------------------------------------------------------|
|----------------------------------------------------------------------------|
Related for Tie Me Up Untie Me tab