Song name
# A B C D E F G H I J K L M N O P Q R S T U V W X Y Z

Mewithoutyou - The Soviet tab

this is my first tab. i didnt find this song on here so i used my brain and came up with 
intro.

Im pretty sure this first guitar part is correct. It sounded perfect to me. but thats
me. and the second guitar part sounds right too but i might be missing a note or two. but
doubt it. ha tell me what you think bensacowboy@hotmail.com

Guitar 1
e|--------------------------------------------|
B|------8---------------7---------------------|
G|--9-9---9---------9-9---9-------------------|
D|----------9---------------9-----------------|
A|------------0-------------------------------|
E|-----------------------------0--------------|

Guitar 2
e|--12-----------------------------------------|
B|-----12--------------------------------------|
G|--------12---9-9-11-9------------------------|
D|----------------------9----------------------|
A|---------------------------------------------|
E|---------------------------------------------|
Tap to rate this tab
 
# A B C D E F G H I J K L M N O P Q R S T U V W X Y Z