Song name
# A B C D E F G H I J K L M N O P Q R S T U V W X Y Z

Mewithoutyou - January 1979 tab

Note: This is my very first tab ever made.
I couldn't figure out the bridge so i just put feedback.

Intro(Both Guitar 1 and 2)
e------------------------------------------------------------------------------|
B------------------------------------------------------------------------------|
G------------------------------------------------------------------------------|
D------------------------------------------------------------------------------|
A--2222-x4-4444-x4-------------------------------------------------------------|
E--0000----2222----------------------------------------------------------------|
      | ______x8______|

Verse(Guitar 1 and 2)
e-7777--9999--11-11-11-11-11-11-11-11---------------------------------------|
B-5555--7777--9--9--9--9--9--9--9--9----------------------------------------|
G---------------------------------------------------------------------------|
D---------------------------------------------------------------------------|
A---------------------------------------------------------------------------|
E---------------------------------------------------------------------------|
    |_________________x4___________________________|

Chorus(Guitar 1)
e---------------------------------------------------------------------------|
B---------------------------------------------------------------------------|
G---------------------------------------------------------------------------|
D---------------------------------------------------------------------------|
A--2222-x4-4444-x4----------------------------------------------------------|
E--0000----2222-------------------------------------------------------------|
     |________x4_________|

(Guitar 2)With reverb effect
e--------------------------------------------------------------------------|
B--9~~12\9-7-4~~~--9~~11-12\9-7-4------------------------------------------|
G--------------------------------------------------------------------------|
D--------------------------------------------------------------------------|
A--------------------------------------------------------------------------|
E--------------------------------------------------------------------------|
      |_________________x2____________________|


Bridge
e }
B }
G }
D }Feedback~~~~~~~~~~~~~~~~~~~~~~~~~~~~~~~~~[Till end of bridge]
A }
E }


Repeat Chorus


Repeat Verse

End: Clean with reverb
e-----11---11-------------------------------------------------------------------|
B---9----9----9---[Till Fade out]-----------------------------------------------|
G-------------------------------------------------------------------------------|
D-------------------------------------------------------------------------------|
A-------------------------------------------------------------------------------|
E-------------------------------------------------------------------------------|
Tap to rate this tab
# A B C D E F G H I J K L M N O P Q R S T U V W X Y Z