Song name
# A B C D E F G H I J K L M N O P Q R S T U V W X Y Z

Mewithoutyou - Flamethrower tab

Help us improve GuitareTab! Take a short survey!
dylan parrish
flamethrower - i never said i was brave
THE ENTIRE SONG! wooooooooo
oh yeah thats right. word.

ok well ofcourse you need distortion, and on the part about the pick slides just listen 
the song to get it absolutely right. its realy hard to explain. so good luck any 
or comments dylanparrish@msn.com
this isn't my first song to tab my mwY but no ones voting on them and it would be 
appreciated thanks


flamethrower

|--------------------------------|
|--------------------------------|
|--------------------------------|
|-999--555--777--333-------------|
|-999--555--777--333-------------|
|-777--333--555--111-------------|x5

guitar 2 comes in on second time through
plays the same chords at the same time

{intro & 1st verse}

ok heres the tricky part
guitar 1

start sliding your pick on the 5&6 string
starting at the 12th fret down to the 7th
fret then slide back up (go back and forth
until the pre-verse stops)

guitar 2
|-----------------------------------------|
|-----------------------------------------|
|-----------------------------------------|
|-----------------------------------------|
|-999555777333---repeat      -------------|
|-777333555111-------listen for timing----|
  xxxxxxxxxxxx (x = palm mute)

same as first verse again 5 times


|-------------------------------------------------------------------|
|-------------------------------------------------------------------|
|-------------------------------------------------------------------|
|-0-0-0-00-0-(play over and over he says --i look down--------------|
|-5-5-5-55-5--------------------------------------------------------|
|-------------------------------------------------------------------|
 strumming is down down down downupdown down
                v   v    v     v^v        v

now its


|------------------------------------------|
|-555-9-3-5-9-5----play until end----------|
|-555-9-3-5-9-5----------------------------|
|-333-7-1-3-7-3----------------------------|
|------------------------------------------|
Related for Flamethrower tab