Song name
# A B C D E F G H I J K L M N O P Q R S T U V W X Y Z

Mewithoutyou - Everything Was Beautiful And Nothing Hurt tab

Guitar:
e|--------------------------------------------------------|
B|-----------------------------------------------5~~~~~---|
G|-----------------------------------------------4~~~~~---|
D|----4----------------------------4-------------6~~~~~---|
A|------4---0h2---0------------------4---0h2----(7)~~~~---|
E|--2-----2----------2p0--(0h1)--2-----2-------0----------|

e|--------------------------------------------------------|
B|-----5---5--7--5\2--------5------5----5-----------------|
G|--4h6--4h6--------------4-----4h6--4h6--4-6bp4-4--------|
D|--------------------------------------------------------|
A|--------------------------------------------------------|
E|--------------------------------------------------------|

e|--------------------|-----------------------------------|
B|-------------------o|-------5----5----------------------|
G|--7----9---9/10-----|-------4----3----------------------|
D|--7----9---9/10-----|--9----5----4----------------------|
A|--5----7---7/8-----o|--9--------------------------------|
E|--------------------|--7--------------------------------|

e|--7-----(10)-----7------6------|----7-------------------|
B|--7------12------8------7-----o|----7-------------------|
G|--7------11------9------6------|----7-------------------|
D|--9------12------9------8------|----9-------------------|
A|--9--------------7-----(9)----o|---(9)------------------|
E|--7---------------------6------|---(7)------------------|

e|--7----12----6----7--|-------------------------|
B|--7----12----7----7--|-------------------------|
G|--7----12----6----7--|--4/6-6-6/7-7-7/9-9-9/11-|
D|--9----14----8----9--|-------------------------|
A|--9----14----9----9--|--2/4-4-4/5-5-5/7-7-7/9--|
E|--7----12----6----7--|-------------------------|

e|-----7-------------7------------7-----------------------|
B|-------7-7h8p7-------7-7h8p7------7h8p7-----------------|
G|----------------9-------------9----------9----7---------|
D|--9-----------------------------------------------------|
A|--------------------------------------------------------|
E|--------------------------------------------------------|

e|----------------------------|---------------------------|
B|---------------------------o|---------------------------|
G|--7--7--7--7p6--6--4--3/4---|--4--4p3h4--4p3h4p3--------|
D|----------------------------|--------------------4------|
A|---------------------------o|---------------------------|
E|----------------------------|---------------------------|
Tap to rate this tab
 
# A B C D E F G H I J K L M N O P Q R S T U V W X Y Z