Mewithoutyou - Silencer tab

Silencer: mewithoutYou

Guitar 1:
Verse:
e|------------------------------------------|
B|------------------------------------------|
G|------------------------------------------|
D|-----4------4-----4-----4-------4---------|
A|--2------0--------------------------------|
D|---------------2-----5-------4-----0~~~---|

Interlude (strummed):
e|--------------------|
B|--------------------|
G|--------------------|
D|--9--7--2--5--4--0--|
A|--9--7--2--5--4--0--|
D|--9--7--2--5--4--0--|

Verse again

Then:
e|--------------------------------------------------------|
B|--------------------------------------------------------|
G|--------------------------------------------------------|
D|--9--0--4--------4-----------9--0--4--------------------|
A|--9--0--4-----2--------------9--0--4--------------------|
D|--9--0--4------------5--4----9--0--4--------------------|

Interlude 2:
e|--------------------------------------------------------|
B|--------------------------------------------------------|
G|--------------------------------------------------------|
D|--9--0--4--0--2-----------------------------------------|
A|--9--0--4--0--2-----------------------------------------|
D|--9--0--4--0--2-----------------------------------------|

Come Kiss; (Interlude with much less distortion)

Interlude 2

Ending:
e|--------------------------------------------------------|
B|--------------------------------------------------------|
G|--------------------------------------------------------|
D|--9--0--2--7--------------------------------------------|
A|--9--0--2--7--------------------------------------------|
D|--9--0--2--7--------------------------------------------|
Then play Verse Twice, muting the last D

Guitar 2:

Verse 1 (Ebow and Slide):
The recording has two different octaves, but live they just do the lower one
e|-------------------------------|
B|-------------------------------|
G|--6--\4--/7--\6--/9---\4--/7---|
D|-------------------------------|
A|-------------------------------|
D|-------------------------------|

Interlude:
e|-----------|-------------|
B|--x--15b--o|--x--17b-----|
G|--x--16b---|--x--16b-----|
D|--x--------|--x----------|
A|--x-------o|--x----------|
D|-----------|-------------|

Verse 2:
e|-----------7--------------------------------------------|
B|-----7---10-----7--------7---5-7-5-7--------------------|
G|--7----7--------------7--------------4------------------|
D|--------------------------------------------------------|
A|--------------------------------------------------------|
D|--------------------------------------------------------|

Interlude 2:
e|--------------------------------------------------------|
B|--------------------------------------------------------|
G|-11--14--16--11---7---9--11---4-------------------------|
D|--x---x---x---x---x---x---x---x-------------------------|
A|--9--12--14---9---5---7---9---2-------------------------|
D|--------------------------------------------------------|

Come Kiss… 
High Distortion on this part with lots of Tremolo on the B
e|------5/7-----7---------5-7-----------------------------|
B|----------------7-----7---------------------------------|
G|-(4)----------------------------------------------------|
D|-(x)----------------------------------------------------|
A|-(2)----------------------------------------------------|
D|--------------------------------------------------------|

Interlude 2

Ending:
e|-------------------|
B|-------------------|
G|--4---7---9---7----|
D|--x---x---x---x----|
A|--2---5---7---5----|
D|-------------------|

Tap to rate this tab
 
# A B C D E F G H I J K L M N O P Q R S T U V W X Y Z