Song name
# A B C D E F G H I J K L M N O P Q R S T U V W X Y Z

Mewithoutyou - Carousels tab

Saw the other guy's tab on here, and I thought I'd add to it.
Comment if you have any corrections or additions.

Intro (0:00 - 0:18)
e|------------|
B|---3-3-3-3--|  Just play that back and forth.
G|--4-4-4-4---|
D|------------|
A|------------|
E|------------|

Intro riff (0:19 - 0:34)
e|----------------------------------------------------------------------------|
B|--12-12-12-12-12-12-12-12\7-7-7-7-7-7-7-7\5-5-5-5\3-3-3-3/5-5-5-5\3-3-3-3---|
G|----------------------------------------------------------------------------|
D|----------------------------------------------------------------------------|
A|----------------------------------------------------------------------------|
E|----------------------------------------------------------------------------|

Verse (0:48 - 1:19) Just listen to the song for the rhythm.
e|----------------------------------------|
B|----------------------------------------|
G|----------------------------------------|
D|--------12-11---------------------------|
A|--/9-----------9-----\(7)--7-7/9--------|
E|----------------------------------------|
To explain the \(7) part: basically as the 9 dies out, slide down
to the 7 but don't pick the note. Then pick the 7-7/9.

Pre-chorus (1:20 - 1:29) (You can either play a full Bminor chord,
or you can just play a B power chord. Your call.)
e|--7-7-7-7-7-7-7--------------------7-7-7-7-7-7-7-----------------------|
B|--7-7-7-7-7-7-7--------------------7-7-7-7-7-7-7-----------------------|
G|--7-7-7-7-7-7-7--(feedback thing)--7-7-7-7-7-7-7-------11-11-11-11-11\-|
D|--9-9-9-9-9-9-9--------------------9-9-9-9-9-9-9-----------------------|
A|--9-9-9-9-9-9-9--------------------9-9-9-9-9-9-9-----------------------|
E|--7-7-7-7-7-7-7--------------------7-7-7-7-7-7-7-----------------------|
(You can faintly hear that last part being played, it's the second
guitar's part.)

Back to verse (1:30 - 1:59)

Chorus (2:00 - 2:29) (Not sure on a lot of this due to multiple guitars
being played, looking for some input on the other guitar part(s).
I've got a little bit of the second/lead guitar figured out, but not much.)
(Also, not sure on playing the Gmaj chord twice, or just once,
it's hard to tell.)
e|--7------7------3---3---0-----3---3---0-----3---3---0-----|    |-7-|
B|--7------7------3---3---0-----3---3---0-----3---3---0-----|    |-7-|
G|--7------7------4---4---0-----4---4---0-----4---4---0-----| x2 |-7-|
D|--9------9------5---5---2-----5---5---2-----5---5---2-----|    |-9-|
A|--9------9------5---5---2-----5---5---2-----5---5---2-----|    |-9-|
E|--7------7------3---3---0-----3---3---0-----3---3---0-----|    |-7-|
(Play it twice, then end the second time on the Bminor chord.)

Verse (2:43 - 3:15)
The second guitar here just plays (more or less) an octave up of the riff.
Listen with just the right ear if you want to get it exact.

Bridge (3:16 - 3:31) Listen for the rhythm.
e|-------------------------------------------------------------------|
B|-------------------------------------------------------------------|
G|-------------------------------------------------------------------|
D|-----------9---------------------------9---7--7h9----7-------------|
A|--9--12--------12--7----12-----9--7h9-------------9----7---7h9-----|
E|---------------------------------------------------------------10--|

Chorus (3:31 - 4:01)

Outro (4:02 - end) Two guitar parts
Guitar 1:
e|--7-----0-----5-----7-----|
B|--7-----3-----5-----7-----|
G|--7-----2-----6-----7-----| x2
D|--9-----0-----7-----9-----|
A|--9----(x)----7-----9-----|
E|--7----(2)----5-----7-----|
    (This ^ is optional, I like to play it to thicken the chord a little.)
    (If you play it, use your thumb, and mute the A string.)
Guitar 2:
e|---------------------------------------------------------------------|
B|---------14----------12----------------------------------------------|
G|--11-----------9------------7p6h7p6h7p6-4---7p6h7p6h7p6h7p6p4-2-2/4--|
D|---------------------------------------------------------------------|
A|---------------------------------------------------------------------|
E|---------------------------------------------------------------------|

e|-----------------------------------------------------------------|
B|-------14----------12----------------------------------10--------|
G|--11-----------9------------7p6h7p6h7p6-4---7p6h7p6h7p6---6\4----|
D|-----------------------------------------------------------------|
A|-----------------------------------------------------------------|
E|-----------------------------------------------------------------|


Guitar 1:
e|--7-----0-----5-----7-----|
B|--7-----3-----5-----7-----|
G|--7-----2-----6-----7-----| x2 (This is the same as before.)
D|--9-----0-----7-----9-----|
A|--9----(x)----7-----9-----|
E|--7----(2)----5-----7-----|

Guitar 2:
e|------------------------|
B|------------------5-----|
G|-----4---2-----6h7------| x2
D|--4---------------------|
A|------------------------|
E|------------------------|

And that's about it. I know I left out some of the second guitar's parts
(namely the verse and chorus), but this should be enough to get you all
going.

Enjoy!
Tap to rate this tab
# A B C D E F G H I J K L M N O P Q R S T U V W X Y Z