Song name
# A B C D E F G H I J K L M N O P Q R S T U V W X Y Z

Mewithoutyou - I Never Said I Was Brave Acoustic tab

CAPO on 2nd fret holding down A, D, G, B and E strings. In other words, do not CAP the 
low E, just all the strings below it, so without any fingers it effectively looks like this.

|-2--|
|-2--|
|-2--|
|-2--|
|-2--|
|-0--|

There are other ways to do it, but I think this sounds best.

[I'll tab the song as though there is no capo on with regards to the fret numbers, to 
make things simple]

Intro & Verse

|--------------------------------------------------------|
|--------------------------------------------------------|
|--------------------------------------------------------|
|-6-----6----7----6----9-----11----9-----6----7----0-----|
|-7(x16)7(x8)7(x4)7(x4)11(x8)11(x4)11(x4)7(x8)7(x4)7(x4)-|
|-4-----0----0----0----0-----0-----0-----0----0----0-----|

Chorus

|-4----5----4------4----5----4-----0------0------|
|-5(x8)5(x4)5(x4)--5(x8)5(x4)5(x4)-0------0------|
|-4----4----4------4----4----4-----0(x16)-0(x16)-|
|-0----0----0------0----0----0-----6------4------|
|----------------------------------7------4------|
|----------------------------------7------0------|

Then at the end of the chorus....
|---------------|
|---------------|
|-00000000------|
|-66666660------|
|-77777777------|
|-77777777------|

And repeat


Tab by NotTheEyes
Music by meWithoutYou
Tap to rate this tab
# A B C D E F G H I J K L M N O P Q R S T U V W X Y Z