Song name
# A B C D E F G H I J K L M N O P Q R S T U V W X Y Z

Mewithoutyou - O Porcupine tab

Here's some of the song. I know it's not that great but the other tab was pretty awful.
tuning - standard

intro/verse
e|----------------------5-----------------------------0-|
b|-3-3-3/6---6-6-5--3-3-----3-3-3/6---6-6-5--3-1--0h1---|
g|------------------------------------------------------|
d|------------------------------------------------------|
a|------------------------------------------------------|
e|------------------------------------------------------|
variation
e|----------------------5--5-5-3-5-----------------------------0-|
b|-3-3-3/6---6-6-5--3-3--------------3-3-3/6---6-6-5--3-1--0h1---|
g|---------------------------------------------------------------|
d|---------------------------------------------------------------|
a|---------------------------------------------------------------|
e|---------------------------------------------------------------|
prechorus    chorus
0:50        |-------------------------------------|x3
e|-5-5-5-   -5-5-5-----------  -5-5-5-------------|
b|-6-6-6-   -6-6-6-----------  -5-5-5-------------|
g|-7-7-7-x3--7-7-7-----------x3-5-5-5-----------x2|
d|-7-7-7-   -7-7-7-----------  -7-7-7-------------|
a|-5-5-5-   -5-5-5-4h5p4h5p4-  -7-7-7-------------|
e|-------   -----------------  -5-5-5-4h5p4h5p4---|

"listen to it"
then verse again
then chorus again

2:25 "in my little world"
e|------------------------------|
b|------------------------------|
g|-10------9------12------9-----|
d|-10-(x8)-9-(x8)-12-(x8)-9-(x8)|
a|-8-------7------10------7-----|
e|------------------------------|

then it gets quiet and the rest of the song is those chords again till the end.



Tap to rate this tab
# A B C D E F G H I J K L M N O P Q R S T U V W X Y Z