Song name
# A B C D E F G H I J K L M N O P Q R S T U V W X Y Z

Mewithoutyou - Grist For The Malady Mill tab

Standard Tuning

Guitar 1
[0:00]-[0:25]
|-----------------------------------------------|
|-----------------------------------------------|
|----0---0-----2---2----------------------------|
|---0---0---------0-0-----3----2-3-2-0----5~----|
|--1---3---8\5----------1----0------------5~----|
|--------------------------------------3--3~----|
|
|-----------------------------------------------|
|-----------------------------------------------|
|----0---0-----2---2----------------------------|
|---0---0---------0-0-----3----2-3-2-0----5~----|
|--1---3---8\5----------1----0------------5~----|
|--------------------------------------3--3~----|
|
|-----------------------------------------------|
|-----------------------------------------------|
|----0---0-----2---2----------------------------|
|---0---0---------0-0-----3----2-3-2-0----5~----|
|--1---3---8\5----------1----0------------5~----|
|--------------------------------------3--3~----|
|
|----------------------------|
|----------------------------|
|----0---0--------0---0------|
|---0---0--------0---0-------|
|--1---3---8\---1---3---8\5--|
|----------------------------|

Guitar 2
Figure out the strumming.
[0:09]-[0:25]
|--5------------3----------|
|--6------------3----------|
|--7------------3----------|
|--7------------5----------|
|--5------------5----------|
|---------------3----------|

Guitar 1
[0:25]-[1:00]
|--------------------------------------------------|
|-------3~------------------------6p5----6p5---3~--|
|--5~----------5~-------5---7--------7-----7-------|
|--------------------7----5------------------------|
|--------------------------------------------------|
|--------------------------------------------------|
|
|--------------------------------------------------|
|--3~------------------------------6p5---6p5----3~-|
|--5~-------------------5---7---------7----7-------|
|---------------------7---5------------------------|
|--------------------------------------------------|
|--------------------------------------------------|
|
|---------------------------------------------------|
|----------------------------------6p5---6p5-----3~-|
|---------2-------------5---7---------7-----7-------|
|---------3-----------7---5-------------------------|
|---------3-----------------------------------------|
|---------------------------------------------------|


Guitar 1
[1:00]-[1:26]
|-----------------------------------------------|
|-----------------------------------------------|
|----0---0-----2---2----------------------------|
|---0---0---------0-0-----3----2-3-2-0----5~----|
|--1---3---8\5----------1----0------------5~----|
|--------------------------------------3--3~----|
|
|-----------------------------------------------|
|-----------------------------------------------|
|----0---0-----2---2----------------------------|
|---0---0---------0-0-----3----2-3-2-0----5~----|
|--1---3---8\5----------1----0------------5~----|
|--------------------------------------3--3~----|
|
|-----------------------------------------------|
|-----------------------------------------------|
|----0---0-----2---2----------------------------|
|---0---0---------0-0-----3----2-3-2-0----5~----|
|--1---3---8\5----------1----0------------5~----|
|--------------------------------------3--3~----|
|
|----------------------------|
|----------------------------|
|----0---0--------0---0------|
|---0---0--------0---0-------|
|--1---3---8\---1---3---8\5--|
|----------------------------|

Guitar 2
These ones are held out
[1:00]-[1:26]
|--5------------3----------|
|--6------------3----------|
|--7------------3----------|
|--7------------5----------|
|--5------------5----------|
|---------------3----------|

Guitar 1
[1:26]-[2:01]
|--------------------------------------------------|
|-------3~------------------------6p5----6p5---3~--|
|--2h5-----2--2--0------5---7--------7-----7-------|
|----------3---------7----5------------------------|
|----------3---------------------------------------|
|--------------------------------------------------|
|
|--5~----------------------------------------------|
|--6~------------------------------6p5---6p5----3~-|
|--7~-------------------5---7---------7----7-------|
|--7~-----------------7---5------------------------|
|--5~----------------------------------------------|
|--------------------------------------------------|
|
|----------------------------------------------------|
|-----------3--1--------------------6p5---6p5-----3~-|
|--------2-----2---------5---7---------7-----7-------|
|--0-3---------3-------7---5-------------------------|
|--------------3-------------------------------------|
|----------------------------------------------------|

Guitar 2
[2:01]-[2:31]
|-------------------------|
|-------------------------|
|----0---0---0---0--0-----|
|---0---0---0---0------0--|
|--1---3---0--------------|
|--------------1---3--0---|

Guitar 2
[2:31]-[2:38]
|--3---------|
|--3---------|
|--3---------|
|--5---------|
|--5---------|
|--3---------|


Guitar 1
[2:38]-[3:18]
|-----------------------------------------------|
|-----------------------------------------------|
|----0---0-----2---2----------------------------|
|---0---0---------0-0-----3----2-3-2-0----5~----|
|--1---3---8\5----------1----0------------5~----|
|--------------------------------------3--3~----|
|
|-----------------------------------------------|
|-----------------------------------------------|
|----0---0-----2---2----------------------------|
|---0---0---------0-0-----3----2-3-2-0----5~----|
|--1---3---8\5----------1----0------------5~----|
|--------------------------------------3--3~----|
|
|-----------------------------------------------|
|-----------------------------------------------|
|----0---0-----2---2----------------------------|
|---0---0---------0-0-----3----2-3-2-0----5~----|
|--1---3---8\5----------1----0------------5~----|
|--------------------------------------3--3~----|
|
|-----------------------------------------------|
|-----------------------------------------------|
|----0---0-----2---2----------------------------|
|---0---0---------0-0-----3----2-3-2-0----5~----|
|--1---3---8\5----------1----0------------5~----|
|--------------------------------------3--3~----|
|
|----------------------------|
|----------------------------|
|----0---0--------0---0------|
|---0---0--------0---0-------|
|--1---3---8\---1---3---8\5--|
|----------------------------|


Guitar 2
Figure out the strumming.
[2:38]-[3:18]
|--5------------3----------|
|--6------------3----------|
|--7------------3----------|
|--7------------5----------|
|--5------------5----------|
|---------------3----------|
Tap to rate this tab
# A B C D E F G H I J K L M N O P Q R S T U V W X Y Z