Song name
# A B C D E F G H I J K L M N O P Q R S T U V W X Y Z

Mewithoutyou - Cardiff Giant tab

Standard tuning. Solo that begins at 2:51

|------------------------------------------------------------|
|--88-8-8p7-8h10~--88-8-8p7-8p7---3/5--88-8-8p7-5---3-5------|
|-------------------------------------------------------6----|
|---------------------------------------------------------7--|
|------------------------------------------------------------|
|------------------------------------------------------------|

|--------------------------------------------------|
|--------------------------------------------------|
|--6h7-9/11\9--6h7-9/11\9--6h7-9/11\9--7h8p7h8-10--|
|--------------------------------------------------|
|--------------------------------------------------|
|--------------------------------------------------|

|--21-21--17--19--17--15--15-15--15-15\14--12--|
|----------------------------------------------|
|----------------------------------------------|
|----------------------------------------------|
|----------------------------------------------|
|----------------------------------------------|

|--7/9--9\7-----9-h10--10p9~~--------------------------|
|-----------10--10-------------7h8-8h7-8h10--8--7--5~--|
|------------------------------------------------------|
|------------------------------------------------------|
|------------------------------------------------------|
|------------------------------------------------------|

|-----7-------------------------------------------|
|--10---10-------7~-------------------------------|
|----------9-----6~---6----------6----------------|
|------------------------7--9--7---7/9--7--9--7~--|
|-------------------------------------------------|
|-------------------------------------------------|
Tap to rate this tab
# A B C D E F G H I J K L M N O P Q R S T U V W X Y Z