Song name
# A B C D E F G H I J K L M N O P Q R S T U V W X Y Z

Mewithoutyou - Cattail Down tab

Standard Tuning. Solo beginning at 1:18

|----2------------------------------------7-----------------------------|
|------3---5-3---2------------7--8p7--------7----------7--7--8-------7--|
|--------4---------3--4-6-7-9--------9--------7------6---------9-7-6----|
|-------------------------------------------------/8--------------------|
|--2--------------------------------------------------------------------|
|--------------2------------------------7-------------------------------|

This the part the trumpet plays
|---------------------------------------------------------------|
|--7--8----------------8-7--------------------------------------|
|-------9-7-6---6-7-9------7h9--7-6-4--4-4-7--7-7-9-7-6--3-4/7--|
|---------------------------------------------------------------|
|---------------------------------------------------------------|
|---------------------------------------------------------------|
Tap to rate this tab
# A B C D E F G H I J K L M N O P Q R S T U V W X Y Z