Song name
# A B C D E F G H I J K L M N O P Q R S T U V W X Y Z

Mewithoutyou - Allah Allah Allah tab

Standard Tuning. The solo that begins at 2:27

|-------------------------------------------------------------------------|
|--10h12-13-12-10-8-8---8\7--7\5--5\3--3--3\1--3--------3-----------------|
|-------------------------------------------------2h4-5----5p4-4p2-2/4-4--|
|-------------------------------------------------------------------------|
|-------------------------------------------------------------------------|
|-------------------------------------------------------------------------|
|
|--12p10-----------------------------------|
|--------12p10-8--3/5-\1-1-------3---------|
|--------------------------4-4h5-----------|
|-----------------------------------7p5-5--|
|------------------------------------------|
|------------------------------------------|
Tap to rate this tab
 
# A B C D E F G H I J K L M N O P Q R S T U V W X Y Z