Song name
# A B C D E F G H I J K L M N O P Q R S T U V W X Y Z

Mewithoutyou - Son Of A Widow tab

Petey D. at Mxpxssml4@hotmail.com (I have almost all mwy songs tabbed except for the i 
said i was brave ep, Not all guitars but at least one)

-------0-------0-------------|
-3-------3-------------------|
---4-------4-----------------|
-----4-------4---------------|
-2-------0-------------------|
-----------------0-----------|

---------------------------------------------------------|
---------------------------------------------------------|
---------------------------------------------------------|
-2-/-4-4--0-/-2-/-0--7-/-6-------2-/-4-4--0-/-2-/-0------|  Sounds like
----------------------------------------------------2----|  e-bow is used
---------------------------------------------------------|

-----------------------------------------|
-----------------------------------------|
-----------------------------------------|
-----------------9--/--14-/-12--/--9-----|  Sounds again like e-bow is used
-----------------------------------------|
-----------------------------------------|

--------------------------|
--------------------------|
--------------------------|
--------------------------| Uses some effect and is really in the distance
-9-9-9-9-9-9-9-9-9-9------| (might be bass)
--------------------------|

--------------------------------------------|
----------------14-15-----------------------|
-----------12-------------------(12)--------|
-9---11-12------------9---11-12-------14-12-| Sounds like ebow
--------------------------------------------|
--------------------------------------------|

------------------------------------------------|
------------------------------------------------|
-9-11-11-11-11-11-11-11--9-11-11-11-11-11-11-11-|
-x-x--x--x--x--x--x--x---x-x--x--x--x--x--x--x--|
-7/9--9--9--9--9--9--9---7/9--9--9--9--9--9--9--|
------------------------------------------------|
Tap to rate this tab
# A B C D E F G H I J K L M N O P Q R S T U V W X Y Z