Song name
# A B C D E F G H I J K L M N O P Q R S T U V W X Y Z

Mewithoutyou - A Sweater Poorly Knit tab

MewithoutYou
A Sweater Poorly Knit
from the forthcoming album Brother/Sister on Tooth and Nail Records

This is a new song in which aaron plays acoustic guitar, videos are floating around on 
here is what I have figured out, it is all of the acoustic part... simple song, standard 
you can easily pick up strum pattern by listening closely

Verse is just two chords...

(A sweater poorly knit, an unsuspecting smile...)

E-------2---------0-------|
B-------2---------0-------|
G-------2---------1-------|
D-------4---------2-------|
A-------4-(20x)---2-(20X)-|
E-------2-----------------|

between verses, three chords

(aaaaaaaaaaaahhhhhhhhhhhhhh)

E-------5---------4-------|
B-------5---------5-------|
G-------6---------6-------|
D-------7---------6-------|
A-------7-(5x)----5-(5X)--|
E-------5---------5-------|     (X3)


then


E-----7----------|
B-----7----------|
G-----8----------|
D-----9----------|
A-----9----------|
E-----7----------|

and back into verse
Tap to rate this tab
# A B C D E F G H I J K L M N O P Q R S T U V W X Y Z