Song name
# A B C D E F G H I J K L M N O P Q R S T U V W X Y Z

Mewithoutyou - Spider Trilogy Yellow Spider Orange Spider Brownish Spider tab

MewithoutYou
Spider Trilogy (Yellow Spider, Orange Spider, Brownish Spider)
Brother, Sister, Tooth & Nail Records 2006

Standard Tuning

Intro/verse

       Bm            E          G         D

E-------------2-------------------------------2------------------|
B------------------------0---------3-----------------------------|
G---------------------------------------------2------------------|
D-------------4----------2---------0--------0--------------------|
A---------2------------2---------2--------0----------------------|
E------2------------0----------3---------------------------------|


Chorus

    D           E                  G         D

E-------2-----------0------------------3----------2--------------|
B----------------------------------------------------------------|
G-------2-----------1---(X3)-----------0----------2--------------|
D-----0----------2------------------0---------0------------------|
A---0---------2-------------------2---------0--------------------|
E----------------------------------------------------------------|
Tap to rate this tab
# A B C D E F G H I J K L M N O P Q R S T U V W X Y Z