Song name
# A B C D E F G H I J K L M N O P Q R S T U V W X Y Z

Mewithoutyou - Nice And Blue tab

Help us improve GuitareTab! Take a short survey!
Intro/Verse x4
--------------------------------------------------|
--------------------------------------------------|
--------------------------------------------------|
--------------------------------------------------|
--------------------------------------------------|
--2-------9---------5----------10-----------------|

Guitar Interlude x4
-------------------------------------------------|
-------------------------------------------------|
-------------------------------------------------|
-------4----2-----0h2-0h2------------------------|
--0h2--------------------------------------------|
-------------------------------------------------|

Chorus...i was once the wine...x2
------------------------------------------------|
------------------------------------------------|
---4-----7-----4--------------------------------|
---4-----7-----4-----7--------------------------|
---2-----5-----2-----7--------------------------|
---------------------5--------------------------|

Verse x4


Chorus x2

Pre-Bridge x8
------------------------------------------------|
------------------------------------------------|
------------------------------------------------|
------------------------------------------------|
---0h2------------------------------------------|
------------------------------------------------|

Bass Part to the end..here it is if you want it
------------------------------------------------|
------------------------------------------------|
--2-2-2---------5-5-5-------2-2-2---------------|
------------------------------------5-5-5-------|
Related for Nice And Blue tab