Song name
# A B C D E F G H I J K L M N O P Q R S T U V W X Y Z

Mewithoutyou - In A Sweater Poorly Knit tab

in a sweater poorly knit
mewithoutYou
dylan parrish

hi all, i tabbed this once before and it sucked hard....so i redid it
added stuffs AND TABBED THE HARP FOR GUITAR!!!!!!! WOOOOO
yeah i know not all of us have a harp so tada!!!!
so its tabbed for two guitars unless you can switch fingers REALY quick and can play 
and strings at the same time


***NOTE i added to a previous one i added which didnt go over so well so
i retabbed it, added stuffs, changed chords stuffs like that
listen to song for timing


Intro
push down hard on the strings almost at
like plucking but brushing across top slowly
let ring for long time

(guitar one)
|-0-------0-------0-------0-----|
|-0-------0-------0-------1-----|
|-0-------1-------0-------2-----|
|-2-------2-------2-------2-----|
|-2-------2-------2-------0-----|
|-0-------0-------0-------0-----|

F#m                                            E
In a sweater poorly knit, and an unsuspecting smile
E                                      F#m
Little Moses drifts downstream in the Nile
F#m                                     E
A fumbling reply -- an awkward, rigid laugh
E                                          F#m
I'm carried helpless by my floating basket raft
F#m                                           E
Your flavor in my mind swings back and forth between
E (lightly)                                  F#m
sweeter than any wine, and bitter as mustard green
F#m                                         E
Light and dark as honeydew and pumpernickle bread
E                                                   A
The trap I set for you seems to have caught my leg instead


(guitar one)
A        C#m x 4

while guitar 2 plays this
this is soposed to be the harp but ummm not many of us
own a harp so i tabbed it for guitar
yes thows are 21's not 2's and 1's mmmkay?

|-21-19-17-16---------|----------------------|-21-19-17-16---------------------------|
|-------------17--14--|----------------------|--------------17--14-141617---17--17-17|
|---------------------|-play twice then play-|---------------------------------------|
|---------------------|----------------------|---------------------------------------|
|---------------------|----------------------|---------------------------------------|
|---------------------|----------------------|---------------------------------------|


As you plow some other field and try and forget my name,
see what harvest yields, and, supposing I'd do the same
I planted rows of peas, but by the first week of july –
they should have come up to my knees but they were maybe ankle high

Take the fingers from your flute to weave your colored yarns,
and boil down your fruit to preserves in mason jars
But now books are overdue and the goats are underfed…
the trap I set for you seems to have caught my leg instead


(guitar one)
A        C#m x 4

(guitar 2)
|-21-19-17-16------------------|----------------------|-21-19-17-16-----------------------------------|
|-------------17--14---17-19-21|----------------------|--------------17--14-141617---17--17-17---19-21|
|------------------------------|-then-----------------|-----------------------------------------------|
|------------------------------|-play-----------------|-----------------------------------------------|
|------------------------------|----------------------|-----------------------------------------------|
|------------------------------|----------------------|-----------------------------------------------|

(guitar one)
A    C#m
AH!          x4

(guitar 2)
|-21-19-17-16------------------|----------------------|-21-19-17-16-----------------------------------|
|-------------17--14---17-19-21|----------------------|--------------17--14-141617---17--17-17---19-21|
|------------------------------|-then-----------------|-----------------------------------------------|
|------------------------------|-play-----------------|-----------------------------------------------|
|------------------------------|----------------------|-----------------------------------------------|
|------------------------------|----------------------|-----------------------------------------------|

You're A door-without-A-key, A field-without-A-fence
You made a holy fool of me, and I've thanked you ever since
If she comes circling back, we'll end where we'd begun
Like two pennies on the train track the train crushed into one

Or if I'm a crown without a king, if I'm a broken, open seed
If I come without a thing, I come with all I need
No boat out in the blue, no place to rest your head
The trap I set for you seems to have caught my leg instead


play this over and over again behind the first guitar until you get nearing the end then
go on and play the ending one
|-21-19-17-16------------------|----------------------|-21-19-17-16-----------------------------------|
|-------------17--14---17-19-21|----------------------|--------------17--14-141617---17--17-17---19-21|
|------------------------------|-then-----------------|-----------------------------------------------|
|------------------------------|-play-----------------|-----------------------------------------------|
|------------------------------|----------------------|-----------------------------------------------|
|------------------------------|----------------------|-----------------------------------------------|

A    C#m
  AH!          x8


A       C#m
I  do not exist x3 A C#m x3


A       C#m
I  do not exist


A               C#m
only YOU exist
A       C#m
I  do not exist

A       C#m
I  do not exist x3 A C#m x3

A C#m over and over until end.

guitar one
|---------------------------------|
|---17--14-141617--17--17----19-21|
|---------------------------------|
|---------------------------------|
|---------------------------------|repeat over til end  **note these play at the same 
listen to song for timing upon one another**
|---------------------------------|


guitar two play til end
|-21-19-17-16------------------|----------------------|-21-19-17-16-----------------------------------|
|-------------17--14---17-19-21|----------------------|--------------17--14-141617---17--17-17---19-21|
|------------------------------|-then-----------------|-----------------------------------------------|
|------------------------------|-play-----------------|-----------------------------------------------|
|------------------------------|----------------------|-----------------------------------------------|
|------------------------------|----------------------|-----------------------------------------------|
Tap to rate this tab
 
# A B C D E F G H I J K L M N O P Q R S T U V W X Y Z