Guitaretab - guitar tabs
Song name
# A B C D E F G H I J K L M N O P Q R S T U V W X Y Z

Mewithoutyou - Dryness And The Rain tab

The Dryness & The Rain
mewithoutYou

Intro:
|--3-3---3-3-|
|--3-3---3-3-|
|--0-0---0-0-|
|--0-0---0-0-|
|-x-x--x-x-|
|--3-3---3-3|
   G5

Intro/Verse:
|---------------------------------------------------------------|
|---------------------------------------------------------------|
|-----------0---------------0---------------0-------------------|
|-----0---------------0---------------0---------------0---------|
|---------------------------------------------------------------|
|---3---3-6---6-8---3---3-6---6-8---3---3-6---6-8---3---3-6-6-3-|
   x4

That G5 gets strummed by the other guitar every so often.


Chorus:
|----------------|----------------|----------------|------------------|
|----------------|----------------|----------------|------------------|
|----------------|----------------|----------------|------------------|
|--3/5-555-555-5-|--3/5-555-555-5-|--3/5-555-555-5-|--888-888-333-333-|
|--3/5-555-555-5-|--3/5-555-555-5-|--3/5-555-555-5-|--888-888-333-333-|
|--1/3-333-333-3-|--1/3-333-333-3-|--1/3-333-333-3-|--666-666-111-111-|
  F5 G5            F5 G5            F5 G5             Bb5     F5


Verse again, just like the last one
[ Tab from: http://www.guitaretab.com/m/mewithoutyou/88535.html ]
Then solo:
|-------------------------------------------|
|-------------------------------------------|
|-------------------------------------------|
|--12-12-12-12p10-10p8-10h12-12p10h12-12-12-|
|-------------------------------------------|
|-------------------------------------------|

|-----------------------------------|
|-----------------------------------|
|-----------------------------------|
|--12-12-12-12p10-10p8-10p8-7-5-5-5-|
|-----------------------------------|
|-----------------------------------|

|-------------------------------------------|
|-------------------------------------------|
|-------------------------------------------|
|--12-12-12-12p10-10p8-10h12-12p10h12-12-12-|
|-------------------------------------------|
|-------------------------------------------|

|---------------|
|---------------|
|---------------|
|--7-7-7-7p5-5~-|
|---------------|
|---------------|


then "...the fish swims in the sea..." has no guitar...


then this:

|--3-3-3-3---3-3-3-3---3-3-3-3---3-3-3-3-|
|--3-3-3-3---3-3-3-3---3-3-3-3---3-3-3-3-|
|--0-0-0-0---0-0-0-0---0-0-0-0---0-0-0-0-|
|--0-0-0-0---0-0-0-0---0-0-0-0---0-0-0-0-|
|----------------------2-2-2-2---3-3-3-3-|
|--3-3-3-3---3-3-3-3---------------------|

Chorus

-END!-

Thanks to kenny B for the help.
Related for Dryness And The Rain tab