Song name
# A B C D E F G H I J K L M N O P Q R S T U V W X Y Z

Mewithoutyou - In A Market Dimly Lit tab

Dylan P.
in a market dimly lit
mewithoutYou 
superemoteddy@yahoo.com
questoins or comments send to me 

LISTEN TO SONG FOR TIMING AND HOW LONG TO PLAY THE INTRO
/=slide
intro/ first verse
-----|------------------------------|
-----|------------------------------|
-----|------------------------------|
---7-|---7----repeat this part------|
--9--|-99-----for a while listen to |
-----|---------song for the timing--|


(guitar two)
------------------------------------|
------------------------------------|
------------------------------------|
------------------------------------|
------------------------------------|listen for timing and when to start 
-2/5-5/7-7/9-9/2--------------------|when to start playing

accordin (tabbed for guitar)
-2--45-7-9-7-45754-2----------------|
--------------------32--------------|
------------------------------------|i didnt complete the accordin cuz i 
------------------------------------|just added it just for fun
------------------------------------|
------------------------------------|

so enjoy when i finshish the rest of it i'll put the rest up
and questons or comments email me 
Tap to rate this tab
# A B C D E F G H I J K L M N O P Q R S T U V W X Y Z