Song name
# A B C D E F G H I J K L M N O P Q R S T U V W X Y Z

Mewithoutyou - Leaf tab

~leaf~mwY
dylan parrish
catch us for the foxes 

~ = ring
/slide

intro
|------------------------------|
|---------------------5--------|
|----0------------0-5-7--------|
|--5-----repeat---5-7-0--------|
|-7-5-------------7-0-0--------|
|------------------------------|
verse
|------------------------------|
|------0~~---------------------|
|----4///2---------------------|
|---5----------repeat----------|
|--7---------------------------|
|------------------------------|

chorus
|-----------------|---------------|
|-----repeat this-|-then play this|
|-----twice-------|---------------|
|-----------------|---------------|
|-----------------|---------------|
|-55-7-0-57-33-0--|-55-7-0~~~~~~~~|

verse
|------------------------------|
|------0~~---------------------|
|----4///2---------------------|
|---5----------repeat----------|
|--7---------------------------|
|------------------------------|

long ending
guitar one
|------------------------------|
|----repeat for a long time----|
|-9-9-9------------------------|
|------------------------------|
|------------------------------|
|------------------------------|

|------7---7-------------------|
|--0-----0 repeat for a little |
|-9-----9----------------------|
|------------------------------|
|------------------------------|
|------------------------------|

then play this 



|------------------------------|
|------0~~---------------------|
|----4///2---------------------|
|---5----------times 9---------|
|--7---------------------------|
|------------------------------|
on the last one play this  
|------------------------------|
|------------------------------|
|---4-2-0~~--------------------|
|--5---------------------------|
|-7----------------------------|
|------------------------------|
Tap to rate this tab
# A B C D E F G H I J K L M N O P Q R S T U V W X Y Z