Song name
# A B C D E F G H I J K L M N O P Q R S T U V W X Y Z

Mezarkabul - This Too Will Pass tab

#----------------------------------PLEASE NOTE---------------------------------#
#This file is the author's own work and represents their interpretation of the #
#song. You may only use this file for private study, scholarship, or research. #
#------------------------------------------------------------------------------#

THIS TOO WILL PASS
As recorded by Mezarkabul
(From the 2001 Album UNSPOKEN)

Transcribed by Snakerf (K. Cagri Ozcan)
	

Music by Pentagram

Gtr I (E A D G B E) - 'dist'
Gtr II (E A D G B E) - 'dist'
Gtr III (E A D G B E) - 'dist'

   Intro
    Moderate Rock Q=120
    N.C.B5C5D5E5  E5      F5 E5G5 E5  E5      B5C5D5E5  E5      C5B5D5B5  B5
   4/4
    Gtr I
    PM|         PM    PM|           PM    PM|         PM    PM|         PM
    E E E E E E E E   E E  E E  E E E E   E E E E E E E E   E E E E E E E E
||------------------|-------------------|-----------------|------------------||
||o-----------------|-------------------|-----------------|-----------------o||
||------------------|-------------------|-----------------|------------------||
||------4-5-7-9---9-|-----10-9-12-9---9-|-----4-5-7-9---9-|-----5-4-7-4---4--||
||o-----2-3-5-7---7-|------8-7-10-7---7-|-----2-3-5-7---7-|-----3-2-5-2---2-o||
||--0-0---------0---|-0-0-----------0---|-0-0---------0---|-0-0---------0----||


  Pre-Verse
     E5                      A5
   Gtr I
   E H        +E  Q          W
||-------------------------|---------------|
||-------------------------|---------------|
||-------------------------|-2-------------|
||---2--------(2)-2--------|-2-------------|
||---2--------(2)-2--------|-0-------------|
||-0-0--------(0)-0--------|---------------|
|
|  Gtr II
|                            ~~
|  Q   E E  E  E  S S S  S   Q.   E E E Q
||-------------------------|---------------|
||-------------------------|---------------|
||-------------------------|---------------|
||-------------7--7h9p7----|-7-------------|
||-----7-8-10-----------10-|------7-7-8-7--|
||-------------------------|---------------|


      E5
   E  H        +Q.         W
|------------------------|---------------|
|------------------------|---------------|
|------------------------|---------------|
|-----2--------(2)-------|-2-------------|
|-----2--------(2)-------|-2-------------|
|--0--0--------(0)-------|-0-------------|
|
|  ~~~                     ~~         ~
| +Q    E E  E  E  E S S   Q.   E E E Q
|------------------------|---------------|
|------------------------|---------------|
|------------------------|---------------|
|----------------------5-|---------------|
|-(7)---7-8-10-12--8-8---|-7--------5-7--|
|------------------------|------7-8------|


    E5                      A5
  E H        +Q.            W
|-------------------------|---------------|
|-------------------------|---------------|
|-------------------------|-2-------------|
|---2--------(2)----------|-2-------------|
|---2--------(2)----------|-0-------------|
|-0-0--------(0)----------|---------------|
|
| Q   E E  E  E  S S S  S   Q.   E E E Q
|-------------------------|---------------|
|-------------------------|---------------|
|-------------------------|---------------|
|-------------7--7h9p7----|-7-------------|
|-7---7-8-10-----------10-|------8-8-7-7--|
|-------------------------|---------------|


      E5                   E5
   E  H        +Q.         W
|------------------------|----------------|
|------------------------|----------------|
|------------------------|----------------|
|-----2--------(2)-------|-2--------------|
|-----2--------(2)-------|-2--------------|
|--0--0--------(0)-------|-0--------------|
|
| +Q    E E  E  E  E S S   Q.   E E E Q
|------------------------|----------------|
|------------------------|----------------|
|------------------------|----------------|
|----------------------5-|----------------|
|-(7)---7-8-10-12--8-8---|-7--------5-7---|
|------------------------|------7-8-------|


   Verse
    E5                                                        F5 E5  F5
    E E E E E E E E   E E E E E E E E   E E E E E E E E   E E Q  E E Q
||------------------|-----------------|-----------------|-----------------||
||o-----------------|-----------------|-----------------|----------------o||
||------------------|-----------------|-----------------|-----------------||
||--2-2-x-x-2-2-x-x-|-2-2-x-x-2-2-x-x-|-2-2-x-x-2-2-x-x-|-2-2-3--2-2-3----||
||o-2-2-x-x-2-2-x-x-|-2-2-x-x-2-2-x-x-|-2-2-x-x-2-2-x-x-|-2-2-3--2-2-3---o||
||--0-0-x-x-0-0-x-x-|-0-0-x-x-0-0-x-x-|-0-0-x-x-0-0-x-x-|-0-0-1--0-0-1----||


   Pre-Chorus
    N.C.B5C5D5E5          F5 E5G5 E5          B5C5D5E5          C5B5D5B5
    PM|         PM    PM|           PM    PM|         PM    PM|         PM
    E E E E E E E E   E E  E E  E E E E   E E E E E E E E   E E E E E E E E
||------------------|-------------------|-----------------|-------------------||
||o-----------------|-------------------|-----------------|------------------o||
||------------------|-------------------|-----------------|-------------------||
||------4-5-7-9---9-|-----10-9-12-9---9-|-----4-5-7-9---9-|-----5-4-7-4---4---||
||o-----2-3-5-7---7-|------8-7-10-7---7-|-----2-3-5-7---7-|-----3-2-5-2---2--o||
||--0-0---------0---|-0-0-----------0---|-0-0---------0---|-0-0---------0-----||


  Chorus
     E5                      A5
   E H        +E  Q          W
||-------------------------|---------------|
||-------------------------|---------------|
||-------------------------|-2-------------|
||---2--------(2)-2--------|-2-------------|
||---2--------(2)-2--------|-0-------------|
||-0-0--------(0)-0--------|---------------|
|
|  Gtr II
|                            ~~
|  Q   E E  E  E  S S S  S   Q.   E E E Q
||-------------------------|---------------|
||-------------------------|---------------|
||-------------------------|---------------|
||-------------7--7h9p7----|-7-------------|
||-----7-8-10-----------10-|------7-7-8-7--|
||-------------------------|---------------|


      E5
   E  H        +Q.         W
|------------------------|---------------|
|------------------------|---------------|
|------------------------|---------------|
|-----2--------(2)-------|-2-------------|
|-----2--------(2)-------|-2-------------|
|--0--0--------(0)-------|-0-------------|
|
|  ~~~                     ~~         ~
| +Q    E E  E  E  E S S   Q.   E E E Q
|------------------------|---------------|
|------------------------|---------------|
|------------------------|---------------|
|----------------------5-|---------------|
|-(7)---7-8-10-12--8-8---|-7--------5-7--|
|------------------------|------7-8------|


    E5                      A5
  E H        +Q.            W
|-------------------------|---------------|
|-------------------------|---------------|
|-------------------------|-2-------------|
|---2--------(2)----------|-2-------------|
|---2--------(2)----------|-0-------------|
|-0-0--------(0)----------|---------------|
|
|                           ~~
| Q   E E  E  E  S S S  S   Q.   E E E Q
|-------------------------|---------------|
|-------------------------|---------------|
|-------------------------|---------------|
|-------------7--7h9p7----|-7-------------|
|-7---7-8-10-----------10-|------7-7-8-7--|
|-------------------------|---------------|


      E5
   E  H        +Q.         W
|------------------------|-----------------------|
|------------------------|-----------------------|
|------------------------|-----------------------|
|-----2--------(2)-------|-2---------------------|
|-----2--------(2)-------|-2---------------------|
|--0--0--------(0)-------|-0---------------------|
|
|  ~~~
| +Q    E E  E  E  E S S   Q  E E  E E S S S  S
|------------------------|-----------------------|
|------------------------|-----------------------|
|------------------------|-----------------------|
|----------------------5-|-----------7-7h9p7-----|
|-(7)---7-8-10-12--8-8---|-7--7-8-10---------10--|
|------------------------|-----------------------|


  A5                  E5
  W                E  H        +Q.
|---------------|------------------------|
|---------------|------------------------|
|-2-------------|------------------------|
|-2-------------|-----2--------(2)-------|
|-0-------------|-----2--------(2)-------|
|---------------|--0--0--------(0)-------|
|
| ~~               ~~~
| Q.   E E E Q    +Q    E E  E  E  E S S
|---------------|------------------------|
|---------------|------------------------|
|---------------|------------------------|
|-7-------------|----------------------5-|
|------7-7-8-7--|-(7)---7-8-10-12--8-8---|
|---------------|------------------------|


  E5
  W                E  H        +Q.
|---------------|----------------------------|
|---------------|----------------------------|
|---------------|----------------------------|
|-2-------------|-----2--------(2)-----------|
|-2-------------|-----2--------(2)-----------|
|-0-------------|--0--0--------(0)-----------|
|
| ~~         ~
| Q.   E E E Q    +Q    E E  E  E  S S S  S
|---------------|----------------------------|
|---------------|----------------------------|
|---------------|----------------------------|
|---------------|---------------7--7h9p7-----|
|-7--------5-7--|-(7)---7-8-10-----------10--|
|------7-8------|----------------------------|


  A5                  E5
  W                E  H        +Q.         W
|---------------|------------------------|----------------|
|---------------|------------------------|----------------|
|-2-------------|------------------------|----------------|
|-2-------------|-----2--------(2)-------|-2--------------|
|-0-------------|-----2--------(2)-------|-2--------------|
|---------------|--0--0--------(0)-------|-0--------------|
|
| ~~         ~~~~~~~~~                     ~~         ~
| Q.   E E E Q    +Q    E E  E  E  E S S   Q.   E E E Q
|---------------|------------------------|----------------|
|---------------|------------------------|----------------|
|---------------|------------------------|----------------|
|---------------|----------------------5-|----------------|
|-7----8-8-7-7--|-(7)---7-8-10-12--8-8---|-7--------5-7---|
|---------------|------------------------|------7-8-------|


   Verse
    E5                                                        F5 E5  F5
    E E E E E E E E   E E E E E E E E   E E E E E E E E   E E Q  E E Q
||------------------|-----------------|-----------------|-----------------||
||o-----------------|-----------------|-----------------|----------------o||
||------------------|-----------------|-----------------|-----------------||
||--2-2-x-x-2-2-x-x-|-2-2-x-x-2-2-x-x-|-2-2-x-x-2-2-x-x-|-2-2-3--2-2-3----||
||o-2-2-x-x-2-2-x-x-|-2-2-x-x-2-2-x-x-|-2-2-x-x-2-2-x-x-|-2-2-3--2-2-3---o||
||--0-0-x-x-0-0-x-x-|-0-0-x-x-0-0-x-x-|-0-0-x-x-0-0-x-x-|-0-0-1--0-0-1----||


   Pre-Chorus
    N.C.B5C5D5E5          F5 E5G5 E5          B5C5D5E5          C5B5D5B5
    PM|         PM    PM|           PM    PM|         PM    PM|         PM
    E E E E E E E E   E E  E E  E E E E   E E E E E E E E   E E E E E E E E
||------------------|-------------------|-----------------|-------------------||
||o-----------------|-------------------|-----------------|------------------o||
||------------------|-------------------|-----------------|-------------------||
||------4-5-7-9---9-|-----10-9-12-9---9-|-----4-5-7-9---9-|-----5-4-7-4---4---||
||o-----2-3-5-7---7-|------8-7-10-7---7-|-----2-3-5-7---7-|-----3-2-5-2---2--o||
||--0-0---------0---|-0-0-----------0---|-0-0---------0---|-0-0---------0-----||


  Chorus
     E5                      A5
   E H        +E  Q          W
||-------------------------|---------------|
||-------------------------|---------------|
||-------------------------|-2-------------|
||---2--------(2)-2--------|-2-------------|
||---2--------(2)-2--------|-0-------------|
||-0-0--------(0)-0--------|---------------|
|
|  Gtr II
|                            ~~
|  Q   E E  E  E  S S S  S   Q.   E E E Q
||-------------------------|---------------|
||-------------------------|---------------|
||-------------------------|---------------|
||-------------7--7h9p7----|-7-------------|
||-----7-8-10-----------10-|------7-7-8-7--|
||-------------------------|---------------|


      E5
   E  H        +Q.         W
|------------------------|---------------|
|------------------------|---------------|
|------------------------|---------------|
|-----2--------(2)-------|-2-------------|
|-----2--------(2)-------|-2-------------|
|--0--0--------(0)-------|-0-------------|
|
|  ~~~                     ~~         ~
| +Q    E E  E  E  E S S   Q.   E E E Q
|------------------------|---------------|
|------------------------|---------------|
|------------------------|---------------|
|----------------------5-|---------------|
|-(7)---7-8-10-12--8-8---|-7--------5-7--|
|------------------------|------7-8------|


    E5                      A5
  E H        +E  Q          W
|-------------------------|---------------|
|-------------------------|---------------|
|-------------------------|-2-------------|
|---2--------(2)-2--------|-2-------------|
|---2--------(2)-2--------|-0-------------|
|-0-0--------(0)-0--------|---------------|
|
|                           ~~
| Q   E E  E  E  S S S  S   Q.   E E E Q
|-------------------------|---------------|
|-------------------------|---------------|
|-------------------------|---------------|
|-------------7--7h9p7----|-7-------------|
|-7---7-8-10-----------10-|------8-8-7-7--|
|-------------------------|---------------|


      E5
   E  H        +Q.         W
|------------------------|-----------------------|
|------------------------|-----------------------|
|------------------------|-----------------------|
|-----2--------(2)-------|-2---------------------|
|-----2--------(2)-------|-2---------------------|
|--0--0--------(0)-------|-0---------------------|
|
|  ~~~
| +Q    E E  E  E  E S S   Q  E E  E E S S S  S
|------------------------|-----------------------|
|------------------------|-----------------------|
|------------------------|-----------------------|
|----------------------5-|-----------7-7h9p7-----|
|-(7)---7-8-10-12--8-8---|-7--7-8-10---------10--|
|------------------------|-----------------------|


  A5                E5
  W               E H        +Q.
|---------------|----------------------|
|---------------|----------------------|
|-2-------------|----------------------|
|-2-------------|---2--------(2)-------|
|-0-------------|---2--------(2)-------|
|---------------|-0-0--------(0)-------|
|
| ~~              ~
| Q.   E E E Q    Q   E E  E  E  E S S
|---------------|----------------------|
|---------------|----------------------|
|---------------|----------------------|
|-7-------------|--------------------5-|
|------7-7-8-8--|-7---7-8-10-12--8-8---|
|---------------|----------------------|


  W                E  H        +Q.
|---------------|----------------------------|
|---------------|----------------------------|
|---------------|----------------------------|
|-2-------------|-----2--------(2)-----------|
|-2-------------|-----2--------(2)-----------|
|-0-------------|--0--0--------(0)-----------|
|
| ~~         ~
| Q.   E E E Q    +Q    E E  E  E  S S S  S
|---------------|----------------------------|
|---------------|----------------------------|
|---------------|----------------------------|
|---------------|---------------7--7h9p7-----|
|-7--------5-7--|-(7)---7-8-10-----------10--|
|------7-8------|----------------------------|


  A5                E5
  W               E H        +Q.         S S S S S S S S S S S S S S S S
|---------------|----------------------|---------------------------------|
|---------------|----------------------|---------------------------------|
|-2-------------|----------------------|---------------------------------|
|-2-------------|---2--------(2)-------|---------------------------------|
|-0-------------|---2--------(2)-------|---------------------------------|
|---------------|-0-0--------(0)-------|-0-0-0-0-0-0-0-0-0-0-0-0-0-0-0-0-|
|
| ~~              ~                      ~~~~~~~~~~~~~~~~~~~~~~~~~~
| Q.   E E E Q    Q   E E  E  E  E S S   Q       Q       Q       Q
|---------------|----------------------|---------------------------------|
|---------------|----------------------|---------------------------------|
|---------------|----------------------|---------------------------------|
|-7-------------|--------------------5-|---------------------------------|
|------8-8-7-7--|-7---7-8-10-12--8-8---|-7-------7-------7-------7-------|
|---------------|----------------------|---------------------------------|


  Verse
   E5                                                        F5 E5  F5
   E E E E E E E E   E E E E E E E E   E E E E E E E E   E E Q  E E Q
||-----------------|-----------------|-----------------|----------------|
||-----------------|-----------------|-----------------|----------------|
||-----------------|-----------------|-----------------|----------------|
||-2-2-x-x-2-2-x-x-|-2-2-x-x-2-2-x-x-|-2-2-x-x-2-2-x-x-|-2-2-3--2-2-3---|
||-2-2-x-x-2-2-x-x-|-2-2-x-x-2-2-x-x-|-2-2-x-x-2-2-x-x-|-2-2-3--2-2-3---|
||-0-0-x-x-0-0-x-x-|-0-0-x-x-0-0-x-x-|-0-0-x-x-0-0-x-x-|-0-0-1--0-0-1---|


  Interlude
   A5           F5                A5         F5/C  E5/B
   E E H    +E  E   E E H.        W           H    H
||----------------|-------------|----------|------------|
||----------------|-------------|----------|------------|
||-2---2----(2)---|-------------|----------|------------|
||-2---2----(2)-3-|---3-3-------|-7--------|-10----9----|
||-0---0----(0)-3-|---3-3-------|-7--------|--8----7----|
||--------------1-|---1-1-------|-5--------|--8----7----|


   Visit The Intro
    N.C.B5C5D5E5          F5 E5G5 E5          B5C5D5E5          C5B5D5B5
    PM|         PM    PM|           PM    PM|         PM    PM|         PM
    E E E E E E E E   E E  E E  E E E E   E E E E E E E E   E E E E E E E E
||------------------|-------------------|-----------------|-------------------||
||o-----------------|-------------------|-----------------|------------------o||
||------------------|-------------------|-----------------|-------------------||
||------4-5-7-9---9-|-----10-9-12-9---9-|-----4-5-7-9---9-|-----5-4-7-4---4---||
||o-----2-3-5-7---7-|------8-7-10-7---7-|-----2-3-5-7---7-|-----3-2-5-2---2--o||
||--0-0---------0---|-0-0-----------0---|-0-0---------0---|-0-0---------0-----||


  Interlude
   A5           F5                A5         F5/C  E5/B
   E E H    +E  E   E E H.        W           H    H
||----------------|-------------|----------|------------|
||----------------|-------------|----------|------------|
||-2---2----(2)---|-------------|----------|------------|
||-2---2----(2)-3-|---3-3-------|-7--------|-10----9----|
||-0---0----(0)-3-|---3-3-------|-7--------|--8----7----|
||--------------1-|---1-1-------|-5--------|--8----7----|


  Chorus
   E5                      A5                  E5
   E E E E  E E E   E      W                E  H        +Q.
||-----------------------|---------------|------------------------|
||-----------------------|---------------|------------------------|
||-----------------------|-2-------------|------------------------|
||-----------------------|-2-------------|-----2--------(2)-------|
||-2-2-2-2--2-2-2---2----|-0-------------|-----2--------(2)-------|
||-0-0-0-0--0-0-0---0----|---------------|--0--0--------(0)-------|
|
|  Gtr II
|                          ~~               ~~~
|  Q   E E  E E S S S  S   Q.   E E E Q    +Q    E E  E  E  E S S
||-----------------------|---------------|------------------------|
||-----------------------|---------------|------------------------|
||-----------------------|---------------|------------------------|
||------------7-7h9p7----|-7-------------|----------------------5-|
||-----7-8-10---------10-|------7-7-8-7--|-(7)---7-8-10-12--8-8---|
||-----------------------|---------------|------------------------|


  W                E  H        +Q.
|---------------|----------------------------|
|---------------|----------------------------|
|---------------|----------------------------|
|-2-------------|-----2--------(2)-----------|
|-2-------------|-----2--------(2)-----------|
|-0-------------|--0--0--------(0)-----------|
|
| ~~         ~
| Q.   E E E Q    +Q    E E  E  E  S S S  S
|---------------|----------------------------|
|---------------|----------------------------|
|---------------|----------------------------|
|---------------|---------------7--7h9p7-----|
|-7--------5-7--|-(7)---7-8-10-----------10--|
|------7-8------|----------------------------|


  A5                  E5
  W                E  H        +Q.
|---------------|------------------------|
|---------------|------------------------|
|-2-------------|------------------------|
|-2-------------|-----2--------(2)-------|
|-0-------------|-----2--------(2)-------|
|---------------|--0--0--------(0)-------|
|
| ~~               ~~~
| Q.   E E E Q    +Q    E E  E  E  E S S
|---------------|------------------------|
|---------------|------------------------|
|---------------|------------------------|
|-7-------------|----------------------5-|
|------8-8-7-7--|-(7)---7-8-10-12--8-8---|
|---------------|------------------------|


                         A5
  W                      W
|----------------------|----------------|
|----------------------|----------------|
|----------------------|-2--------------|
|-2--------------------|-2--------------|
|-2--------------------|-0--------------|
|-0--------------------|----------------|
|
|                        ~~
| Q  E E  E E S S S  S   Q.   E E E Q
|----------------------|----------------|
|----------------------|----------------|
|----------------------|----------------|
|-----------7-7h9p7----|-7--------------|
|-7--7-8-10---------10-|------7-7-8-7---|
|----------------------|----------------|


    E5
  E H        +Q.         W
|----------------------|---------------||
|----------------------|---------------||
|----------------------|---------------||
|---2--------(2)-------|-2-------------||
|---2--------(2)-------|-2-------------||
|-0-0--------(0)-------|-0-------------||
|
| ~                      ~~         ~
| Q   E E  E  E  E S S   Q.   E E E Q
|----------------------|---------------||
|----------------------|---------------||
|----------------------|---------------||
|--------------------5-|---------------||
|-7---7-8-10-12--8-8---|-7--------5-7--||
|----------------------|------7-8------||


 Outro Solo
                            A5
  E H        +Q.            W
|-------------------------|----------------|
|-------------------------|----------------|
|-------------------------|-2--------------|
|---2--------(2)----------|-2--------------|
|---2--------(2)----------|-0--------------|
|-0-0--------(0)----------|----------------|
|
|                           ~~
| Q   E E  E  E  S S S  S   Q.   E E E Q
|-------------------------|----------------|
|-------------------------|----------------|
|-------------------------|----------------|
|-------------7--7h9p7----|-7--------------|
|-7---7-8-10-----------10-|------8-8-7-7---|
|-------------------------|----------------|


    E5
  E H        +Q.         W
|----------------------|---------------|
|----------------------|---------------|
|----------------------|---------------|
|---2--------(2)-------|-2-------------|
|---2--------(2)-------|-2-------------|
|-0-0--------(0)-------|-0-------------|
|
| ~                      ~~         ~
| Q   E E  E  E  E S S   Q.   E E E Q
|----------------------|---------------|
|----------------------|---------------|
|----------------------|---------------|
|--------------------5-|---------------|
|-7---7-8-10-12--8-8---|-7--------5-7--|
|----------------------|------7-8------|
|
| W                      W
|----------------------|---------------|
|----------------------|---------------|
|----------------------|---------------|
|----------------------|---------------|
|----------------------|---------------|
|----------------------|---------------|


                            A5
  E H        +Q.             W
|-------------------------|-----------------|
|-------------------------|-----------------|
|-------------------------|--2--------------|
|---2--------(2)----------|--2--------------|
|---2--------(2)----------|--0--------------|
|-0-0--------(0)----------|-----------------|
|
|                            ~~~
| Q   E E  E  E  S S S  S    Q.   E E E Q
|-------------------------|-----------------|
|-------------------------|-----------------|
|-------------------------|-----------------|
|-------------7--7h9p7----|--7--------------|
|-7---7-8-10-----------10-|-------7-7-8-7---|
|-------------------------|-----------------|
|
|                         Gtr III
| W                          Q.   E E E Q
|-------------------------|-----------------|
|-------------------------|-----------------|
|-------------------------|-/5----4-4-------|
|-------------------------|-----------7-7---|
|-------------------------|-----------------|
|-------------------------|-----------------|


    E5
  E H        +Q.         W
|----------------------|---------------|
|----------------------|---------------|
|----------------------|---------------|
|---2--------(2)-------|-2-------------|
|---2--------(2)-------|-2-------------|
|-0-0--------(0)-------|-0-------------|
|
| ~                      ~~         ~
| Q   E E  E  E  E S S   Q.   E E E Q
|----------------------|---------------|
|----------------------|---------------|
|----------------------|---------------|
|--------------------5-|---------------|
|-7---7-8-10-12--8-8---|-7--------5-7--|
|----------------------|------7-8------|
|
|                        ~~
| Q   E E  E  E  E E     Q.   E E E Q
|----------------------|---------------|
|----------------------|---------------|
|----------------------|---------------|
|-7---5-7--5-----5-7---|-9----7-7-5-5--|
|-------------7--------|---------------|
|----------------------|---------------|


                              A5
   E  H        +Q.             W
|---------------------------|-----------------|
|---------------------------|-----------------|
|---------------------------|--2--------------|
|-----2--------(2)----------|--2--------------|
|-----2--------(2)----------|--0--------------|
|--0--0--------(0)----------|-----------------|
|
|                              ~~~
| +Q    E E  E  E  S S S  S    Q.   E E E Q
|---------------------------|-----------------|
|---------------------------|-----------------|
|---------------------------|-----------------|
|---------------7--7h9p7----|--7--------------|
|-(7)---7-8-10-----------10-|-------8-8-7-7---|
|---------------------------|-----------------|
|
| +Q    E E  E  E  E   S  S    Q.   E E E Q
|---------------------------|-----------------|
|---------------------------|-----------------|
|---------------------------|-/5----4-4-------|
|-(5)--------------5--------|-----------7-7---|
|-------7-8-10--7------7--7-|-----------------|
|---------------------------|-----------------|


    E5
  E H        +Q.         W
|----------------------|----------------------|
|----------------------|----------------------|
|----------------------|----------------------|
|---2--------(2)-------|-2--------------------|
|---2--------(2)-------|-2--------------------|
|-0-0--------(0)-------|-0--------------------|
|
| ~
| Q   E E  E  E  E S S   Q  E E  E E S S S  S
|----------------------|----------------------|
|----------------------|----------------------|
|----------------------|----------------------|
|--------------------5-|-----------7-7h9p7----|
|-7---7-8-10-12--8-8---|-7--7-8-10---------10-|
|----------------------|----------------------|
|
|                        ~~~~~~~~~~~~~~~
| Q   E E  E  E  E E     Q  Q    Q   Q
|----------------------|----------------------|
|----------------------|----------------------|
|----------------------|-4--4----4---4--------|
|-7---5-7--5-----5-7---|----------------------|
|-------------7--------|----------------------|
|----------------------|----------------------|


  A5                   E5
   W                E  H        +Q.         W
|----------------|------------------------|-----------------|
|----------------|------------------------|-----------------|
|--2-------------|------------------------|-----------------|
|--2-------------|-----2--------(2)-------|-2---------------|
|--0-------------|-----2--------(2)-------|-2---------------|
|----------------|--0--0--------(0)-------|-0---------------|
|
|  ~~~              ~~~                     ~~         ~
|  Q.   E E E Q     Q    E E  E  E  E S S   Q.   E E E Q
|----------------|------------------------|-----------------|
|----------------|------------------------|-----------------|
|----------------|------------------------|-----------------|
|--7-------------|----------------------5-|-----------------|
|-------7-7-8-7--|--7----7-8-10-12--8-8---|-7--------5-7----|
|----------------|------------------------|------7-8--------|
|
|                                           ~~
|  Q.   E E E Q    +Q    E E  E  E  E E     Q.   E E E Q
|----------------|------------------------|-----------------|
|----------------|------------------------|-----------------|
|-/5----4-4------|------------------------|-----------------|
|-----------7-7--|-(7)---5-7--5-----5-7---|-9----7-7-5-5----|
|----------------|---------------7--------|-----------------|
|----------------|------------------------|-----------------|


    E5                      A5
  E H        +Q.             W
|-------------------------|----------------|
|-------------------------|----------------|
|-------------------------|--2-------------|
|---2--------(2)----------|--2-------------|
|---2--------(2)----------|--0-------------|
|-0-0--------(0)----------|----------------|
|
|                            ~~~
| Q   E E  E  E  S S S  S    Q.   E E E Q
|-------------------------|----------------|
|-------------------------|----------------|
|-------------------------|----------------|
|-------------7--7h9p7----|--7-------------|
|-7---7-8-10-----------10-|-------8-8-7-7--|
|-------------------------|----------------|
|
|                            ~~~
| Q   E E  E  E  E   S  S    Q.   E E E Q
|-------------------------|----------------|
|-------------------------|----------------|
|-------------------------|-/5----4-4------|
|-5--------------5--------|-----------7-7--|
|-----7-8-10--7------7--7-|----------------|
|-------------------------|----------------|


      E5
   E  H        +Q.         W
|------------------------|-----------------------|
|------------------------|-----------------------|
|------------------------|-----------------------|
|-----2--------(2)-------|-2---------------------|
|-----2--------(2)-------|-2---------------------|
|--0--0--------(0)-------|-0---------------------|
|
|  ~~~
|  Q    E E  E  E  E S S   Q  E E  E E S S S  S
|------------------------|-----------------------|
|------------------------|-----------------------|
|------------------------|-----------------------|
|----------------------5-|-----------7-7h9p7-----|
|--7----7-8-10-12--8-8---|-7--7-8-10---------10--|
|------------------------|-----------------------|
|
|                          ~~~~~~~~~~~~~~~
| +Q    E E  E  E  E E     Q  Q    Q   Q
|------------------------|-----------------------|
|------------------------|-----------------------|
|------------------------|-4--4----4---4---------|
|-(7)---5-7--5-----5-7---|-----------------------|
|---------------7--------|-----------------------|
|------------------------|-----------------------|


  A5                  E5
   W               E  H        +Q.
|---------------|------------------------|
|---------------|------------------------|
|--2------------|------------------------|
|--2------------|-----2--------(2)-------|
|--0------------|-----2--------(2)-------|
|---------------|--0--0--------(0)-------|
|
|  ~~~             ~~~
|  Q.  E E E Q     Q    E E  E  E  E S S
|---------------|------------------------|
|---------------|------------------------|
|---------------|------------------------|
|--7------------|----------------------5-|
|------7-7-8-7--|--7----7-8-10-12--8-8---|
|---------------|------------------------|
|
|  Q.  E E E Q    +Q    E E  E  E  E E
|---------------|------------------------|
|---------------|------------------------|
|-/5s==4-4------|------------------------|
|----------7-7--|-(7)---5-7--5-----5-7---|
|---------------|---------------7--------|
|---------------|------------------------|


  A5                  E5
  W                E  H        +Q.
|---------------|----------------------------|
|---------------|----------------------------|
|-2-------------|----------------------------|
|-2-------------|-----2--------(2)-----------|
|-0-------------|-----2--------(2)-----------|
|---------------|--0--0--------(0)-----------|
|
| ~~         ~
| Q.   E E E Q     Q    E E  E  E  S S S  S
|---------------|----------------------------|
|---------------|----------------------------|
|---------------|----------------------------|
|---------------|---------------7--7h9p7-----|
|-7--------5-7--|--7----7-8-10-----------10--|
|------7-8------|----------------------------|
|
| ~~         ~
| Q.   E E E Q    +Q    E E  E  E  E   S  S
|---------------|----------------------------|
|---------------|----------------------------|
|---------------|----------------------------|
|-9----7-7-5-5--|-(5)--------------5---------|
|---------------|-------7-8-10--7------7--7--|
|---------------|----------------------------|


  A5                  E5
   W               E  H        +Q.         W
|---------------|------------------------|----------------------*|
|---------------|------------------------|----------------------*|
|--2------------|------------------------|----------------------*|
|--2------------|-----2--------(2)-------|-2--------------------*|
|--0------------|-----2--------(2)-------|-2--------------------*|
|---------------|--0--0--------(0)-------|-0--------------------*|
|
|  ~~~             ~~~
|  Q.  E E E Q     Q    E E  E  E  E S S   Q  E E  E E S S S  S
|---------------|------------------------|----------------------*|
|---------------|------------------------|----------------------*|
|---------------|------------------------|----------------------*|
|--7------------|----------------------5-|-----------7-7h9p7----*|
|------7-7-8-7--|--7----7-8-10-12--8-8---|-7--7-8-10---------10-*|
|---------------|------------------------|----------------------*|
|
|                                          ~~~~~~~~~~~~~~~
|  Q.  E E E Q    +Q    E E  E  E  E E     Q  Q    Q   Q
|---------------|------------------------|----------------------*|
|---------------|------------------------|----------------------*|
|-/5s==4-4------|------------------------|-4--4----4---4--------*|
|----------7-7--|-(7)---5s7s=5-----5s7---|----------------------*|
|---------------|---------------7--------|----------------------*|
|---------------|------------------------|----------------------*|



Duration Legend
---------------
W - whole; H - half; Q - quarter; E - 8th; S - 16th; T - 32nd; X - 64th; a - acciaccatura
+ - note tied to previous; . - note dotted; .. - note double dotted
Uncapitalized letters represent notes that are staccato (1/2 duration)
Irregular groupings are notated above the duration line
Duration letters will always appear directly above the note/fret number it represents the
duration for.  Duration letters with no fret number below them represent rests.  Multi-
bar rests are notated in the form Wxn, where n is the number of bars to rest for.  Low
melody durations appear below the staff

Tablature Legend
----------------
 h   - hammer-on
 p   - pull-off
 b   - bend
 pb  - pre-bend
 r   - bend release (if no number after the r, then release immediately)
 /\  - slide into or out of (from/to "nowhere")
 s   - legato slide
 S   - shift slide
 - natural harmonic
[n]  - artificial harmonic
n(n) - tapped harmonic
 ~   - vibrato
 tr  - trill
 T   - tap
 TP  - trem. picking
 PM  - palm muting
\n/  - tremolo bar dip; n = amount to dip
 \n  - tremolo bar down
 n/  - tremolo bar up
/n\  - tremolo bar inverted dip
 =   - hold bend; also acts as connecting device for hammers/pulls
 <> - volume swell (louder/softer)
 x   - on rhythm slash represents muted slash
 o   - on rhythm slash represents single note slash

Misc Legend
-----------
 |  - bar
||  - double bar
||o - repeat start
o|| - repeat end
*|  - double bar (ending)
 :  - bar (freetime)
 $  - Segno
 &  - Coda
Tempo markers -  = BPM(8/16=s8/s16), where s8 = swing 8ths, s16 = swing 16ths

Tap to rate this tab
 
# A B C D E F G H I J K L M N O P Q R S T U V W X Y Z