Song name
# A B C D E F G H I J K L M N O P Q R S T U V W X Y Z

Mezarkabul - For Those Who Died Alone tab

Song: For Those Who Died Alone (Instrumental)
Band: Mezarkabul
Record: Unspoken (2002)
Label: Noise
Composed By: Murat Ilkan, Hatan Utangac, Metin Turkcan, Tarkan Gozubuyuk, Cenk Unnu
Transcribed By: Alex Polgar

This has to be my favourite song by Mezarkabul because it has all their elements in one
Their Turkish Folk style, The Heavy as Fuck Metal, and their insane compositional
Thus was no cake walk to transcribe so there is probably a few errors but I did the best 
can and it sounds pretty good.

Guitar 1 Tuning Drop D (DAdGBE)
Guitar 2 Tuning Drop D (DAdGBE)
Guitar 3 Tuning Drop D (DAdGBE)

Note: Guitar 3 only comes in every so often as octaves for the melody so I will put when
comes in for the octaves but I'm not going to transcribe out the octaves.


Another note: I did not put in the rythyms but if u've listened to the song they should
easy to figure out but if your trying to play this withou knowing the song it will be difficult.


Legend

* Let Ring
. Palm mute
/ Slide down neck
\ Slide up neck
h hammer on
p pull of
|o repeat signs o|
|o              o|

Come in at 0:16

                        Riff 1

  Guitar 1

E|-------------------------|-------------------------|
B|-------------------------|-------------------------|
G|-------------------------|-------------------------|
D|-3-5-5/7-7-7-5-5-3-3h5-5-|-2-3-3/5-5-7-3-3-2-2h3-3-|
A|-------------------------|-------------------------|
D|-------------------------|-------------------------|

  Guitar 2                                              x2

E|-------------------------|-------------------------|
B|-------------------------|-------------------------|
G|-------------------------|-------------------------|
D|----7--7--7---7-----7----|----5--5--5---3-----3----|
A|----0--0--0---0-----0----|----3--3--3---0-----0----|
D|----0--0--0---0--0--0----|----0--0--0---0--0--0----|
      *  *  .   *  .  .         *  *  .   *  .  .


                         Riff 2

  Guitar 1                Ending 1                Ending 2

E|-----------------------|-----------------------|-----------------------|
B|o----------------------|----------------------o|-----------------------|
G|-5-7-2-2-2/5-7-7-5-5-5-|-2-3-3/5-5-7-3-3-2-2-2-|---5-5-5-7-3-3-2-2h3-3-|
D|-----------------------|-----------------------|-5---------------------|
A|o----------------------|----------------------o|-----------------------|
D|-----------------------|-----------------------|-----------------------|

  Guitar 2

E|-----------------------|-----------------------|-----------------------|
B|o----------------------|----------------------o|-----------------------|
G|-----------------------|-----------------------|-----------------------|
D|----7--7--7---7-----7--|----5--5--5---3-----3--|----5--5--5---3-----3--|
A|o---0--0--0---0-----0--|----3--3--3---0-----0-o|----3--3--3---0-----0--|
D|----0--0--0---0--0--0--|----0--0--0---0--0--0--|----0--0--0---0--0--0--|
      *  *  .   *  .  .       *  *  .   *  .  .       *  *  .   *  .  .


                        Riff 3

Guitar 1                              Ending 1        Ending 2

E|-----------------------|-----------|---------------|---------------|
B|-----------------------|-----------|---------------|---------------|
G|-----------------------|-----------|---------------|---------------|
D|-5-7-3-3-5-5/7-7-5-5-5-|-2-3-3/5-5-|-7-3-3-2-2h3-3-|---------------|
A|-----------------------|-----------|---------------|-7p5-5-3-3h5-5-|
D|-----------------------|-----------|---------------|---------------|

Guitar 2

E|-----------------------|-----------|---------------|---------------|
B|-----------------------|-----------|---------------|---------------|
G|-----------------------|-----------|---------------|---------------|
D|----7--7--7---7-----7--|--5--5--5--|----3-----3----|----3-----3----|
A|----0--0--0---0-----0--|--3--3--3--|----0-----0----|----0-----0----|
D|----0--0--0---0--0--0--|--0--0--0--|----0--0--0----|----0--0--0----|
      *  *  .   *  .  .     *  *  .       *  .  .         *  .  .

Now do that all over again but let guitar 3 play guitar 1's octaves on the 2nd string
opposed to the sixth string octaves)

2:45

Guitar 2

E|----------------------------|
B|----------------------------|
G|----------------------------|
D|-7-7-7--7---7--5-5-5--3---3-|  x4
A|-0-0-0--0---0--3-3-3--0---0-|
D|-0-0-0--0-0-0--0-0-0--0-0-0-|
   * * .  * . .  * * .  * . .

Now do Riffs 1-3 with octaves again then stop at 4:28

4:34

                    Riff 4 (With Reverb / Echo)

  Guitar 2

E|-------------------|
B|-------------------|
G|-------------------|
D|-12-------------12-|
A|-12-------------12-|
D|-12-12-12-12-10-12-|


                    Riff 5

Guitar 1

E|------------------------------------------------------------------------------------------|
B|-10---------------12----------------------------------------------------------------------|
G|-7----------------9-----------------------------------------------------------------------|
D|------------------------------------------------------------------------------------------|
A|------------------------------------------------------------------------------------------|
D|----0-12-12-10-12----0-12-12-10-12--12-14-15-15--15-15-15-17-14--14-14-14-15-12--12-10-12-|

Guitar 2                 x4

E|------------------------------------------------------------------------------------------|
B|------------------------------------------------------------------------------------------|
G|------------------------------------------------------------------------------------------|
D|----12-------------12---------------12-------------12-------------------------------------|
A|----12-------------12---------------12-------------12-------------------------------------|
D|----12-12-12-12-10-12---------------12-12-12-12-10-12-------------------------------------|


                        Riff 6

Both Guitars

E|---------------------------------------------------------------------------|
B|---------------------------------------------------------------------------|
G|---------------------------------------------------------------------------|
D|-------------------------------------------6-------5-------6-------3--5--6-|
A|-------6-5-3-------------6-5-3-------------6-------5-------6-------3--5--6-|
D|-0-0-0-6-5-3-0-0-0-0-0-0-6-5-3-0-0-0-0-0-0-6-0-0-0-5-0-0-0-6-0-0-0-3--5--6-|
   |___|       |___| |___|       |___| |___|   |___|   |___|   |___|
     3           3     3           3     3       3       3       3


Alternate between riff 5 and 6 4 times and for the last  minute, gradually slow down.
Tap to rate this tab
# A B C D E F G H I J K L M N O P Q R S T U V W X Y Z