Song name
# A B C D E F G H I J K L M N O P Q R S T U V W X Y Z

Mezarkabul - Sonsuz tab

#----------------------------------PLEASE NOTE---------------------------------#
#This file is the author's own work and represents their interpretation of the #
#song. You may only use this file for private study, scholarship, or research. #
#------------------------------------------------------------------------------#

SONSUZ
As recorded by Mezarkabul
(From the 1997 Album ANATOLIA)

Transcribed by Snakerf
	

Words by Mezaarkabul Music by Mezarkabul

Gtr I (E A D G B E) - 'steel'
Gtr II (E A D G B E) - 'steel'
Gtr III (E A D G B E) - 'overd.'
Gtr IV (E A D G B E) - 'jazz gui.'

   Intro
    Q=85
    Em                            D
   4/4
    Gtr I
     S S Q      S S Q       S S E
||--------------------------------|
||o-------------------------------|
||-----9----------7---------------|
||--/9---9-----/7---7-------4-5-7-|
||o-------------------------------|
||--------------------------------|
|
|   Gtr II
|    Q     S S  S S S S S S E   E
||---0-----0-0--0-0-0-0-0-0-0---0-|
||o--0-----0-0--0-0-0-0-0-0-0---0-|
||---0-----0-0--0-2-2-2-2-2-2---2-|
||---2-----2-2--2-2-2-2-2-2-2---2-|
||o--2-----2-2--0-0-0-0-0-0-0---0-|
||---0-----0-0--0-----------------|


                                  Em
   S S Q      S S Q       S S S S   a H          +E  S S E   S S
|---------------------------------|---------------------------------|
|---------------------------------|---------------------------------|
|----7----------7-----------------|---------------------------------|
|-/7---7-----/4---4-------5-4-----|---------------------------------|
|-----------------------------7-5-|-5s7----------(7)-4-5-7---4-5----|
|---------------------------------|---------------------------------|
|
|  Q     S S  S S S S S S E   E       Q  S S S S  E  S S S S S S
|--2-----2-2--2-2-2-2-2-2-2---2---|---0--0-0-0-0--0--0-0-0-0-0-0----|
|--3-----3-3--3-3-3-3-3-3-3---3---|---0--0-0-0-0--0--0-0-0-0-0-0----|
|--2-----2-2--2-2-2-2-2-2-2---2---|---0--0-0-0-0--0--0-0-0-0-0-0----|
|--0-----0-0--0-0-0-0-0-0-0---0---|---2--2-2-2-2--2--2-2-2-2-2-2----|
|---------------------------------|---2--2-2-2-2--2--2-2-2-2-2-2----|
|---------------------------------|---0--------------0--------------|


                               C
  W                                E E Q       S E   S +S  S S S
|---------------------------||-||--------------------------------|
|--------------------------o||-||o-------------------------------|
|---------------------------||-||--------------------------------|
|---------------------------||-||--2-2---------5-5---------------|
|-7------------------------o||-||o-----3-------------5-(5)-5-3-5-|
|---------------------------||-||--------------------------------|
|
| Q  S S S S E S S S S S S         Q   S S S S E   S S  S  S S S
|-0--0-0-0-0-0-0-0-0-0-0-0--||-||--0---0-x-0-x-0---x-0--0--0-0-0-|
|-0--0-0-0-0-0-0-0-0-0-0-0-o||-||o-1---1-x-1-x-1---x-1--1--1-1-1-|
|-0--0-0-0-0-0-0-0-0-0-0-0--||-||--0---0-x-0-x-0---x-0--0--0-0-0-|
|-2--2-2-2-2-2-2-2-2-2-2-2--||-||--2---2-x-2-x-2---x-2--2--2-2-2-|
|-2--2-2-2-2-2-2-2-2-2-2-2-o||-||o-3-----------3-----------------|
|-0------------0------------||-||--------------------------------|


  Emadd9/A
  +E  S S Q       E S S +S  E   S
|---------------------------------|
|---------------------------------|
|---------------------------------|
|-----------------7-7-------------|
|-(5)-7-7-5-----------7-(7)-5---5-|
|---------------------------------|
|
|  Q      S S S S E S S  S  S S S
|--0------0-x-0-x-0-x-0--0--0-0-0-|
|--3------3-x-3-x-3-x-3--3--3-3-3-|
|--0------0-x-0-x-0-x-0--0--0-0-0-|
|--4------4-x-4-x-4-x-4--4--4-4-4-|
|--5------5-x-5-x-5-x-5--5--5-5-5-|
|--5------------------------------|


  Em
  W
|---------------------------------|
|---------------------------------|
|---------------------------------|
|---------------------------------|
|-7-------------------------------|
|---------------------------------|
|
| S S S S S S S S S S S S S S S S
|-0-0-0-0-0-0-0-0-0-0-0-0-0-0-0-0-|
|-0-0-0-0-0-0-0-0-0-0-0-0-0-0-0-0-|
|-0-0-0-0-0-0-0-0-0-0-0-0-0-0-0-0-|
|-2-2-2-2-2-2-2-2-2-2-2-2-2-2-2-2-|
|-2-2-------2-------------2-------|
|-0---------0-------------0-------|


  1.                            2.
  +W                             H.      S E.
|-----------------------------||--------------|
|----------------------------o||--------------|
|-----------------------------||---------0-2--|
|-----------------------------||--------------|
|-(7)------------------------o||--------------|
|-----------------------------||--------------|
|
|  Q   S S S S E S S S S S S     H.      Q
|--0---0-0-0-0-0-0-0-0-0-0-0--||-0------------|
|--0---0-0-0-0-0-0-0-0-0-0-0-o||-0------------|
|--0---0-0-0-0-0-0-0-0-0-0-0--||-0------------|
|--2---2-2-2-2-2-2-2-2-2-2-2--||-2------------|
|--2---2-------2-------------o||-2------------|
|--0-----------0--------------||-0------------|


   Verse
    Em
    Q  S S S S E S S S S S S
||--0--0-0-0-0-0-0-0-0-0-0-0-|
||o-0--0-0-0-0-0-0-0-0-0-0-0-|
||--0--0-0-0-0-0-0-0-0-0-0-0-|
||--2--2-2-2-2-2-2-2-2-2-2-2-|
||o-2--2-------2-------------|
||--0----------0-------------|
|
|   W
||---------------------------|
||o--------------------------|
||---------------------------|
||---------------------------|
||o--------------------------|
||---------------------------|


  Q  S S S S E S S S S S S   Q  S S S S E S S S S S S
|-0--0-0-0-0-0-0-0-0-0-0-0-|-0--0-0-0-0-0-0-0-0-0-0-0---|
|-0--0-0-0-0-0-0-0-0-0-0-0-|-0--0-0-0-0-0-0-0-0-0-0-0---|
|-0--0-0-0-0-0-0-0-0-0-0-0-|-0--0-0-0-0-0-0-0-0-0-0-0---|
|-2--2-2-2-2-2-2-2-2-2-2-2-|-2--2-2-2-2-2-2-2-2-2-2-2---|
|-2--2-------2-------------|-2--2-------2---------------|
|-0----------0-------------|-0----------0---------------|
|
| W                          W
|--------------------------|----------------------------|
|--------------------------|----------------------------|
|--------------------------|----------------------------|
|--------------------------|----------------------------|
|--------------------------|----------------------------|
|--------------------------|----------------------------|


  Em                       Am
  Q  S S S S E S S S S S S   Q   S S  S S E  S S  S S S S
|-0--0-0-0-0-0-0-0-0-0-0-0-|-0---0-0--0-0-0--0-0--0-0-0-0-|
|-0--0-0-0-0-0-0-0-0-0-0-0-|-1---1-1--1-1-1--1-1--1-1-1-1-|
|-0--0-0-0-0-0-0-0-0-0-0-0-|-2---2-2--2-2-2--2-2--2-2-2-2-|
|-2--2-2-2-2-2-2-2-2-2-2-2-|-2---2-2--2-2-2--2-2--2-2-2-2-|
|-2--2-------2-------------|-0------------0---------------|
|-0----------0-------------|------------------------------|
|
| Gtr III
|                                                 ~~~~~~~~~
| W                          Q.       E   Q       Q
|--------------------------|------------------------------|
|--------------------------|--------------8\-----10-------|
|--------------------------|---------/9-------------------|
|--------------------------|------------------------------|
|--------------------------|------------------------------|
|--------------------------|------------------------------|


    S  S S S S S S S S S S S S S S S
|---0--0-0-0-0-0-0-0-0-0-0-0-0-0-0-0-|
|---1--1-1-1-1-1-1-1-1-1-1-1-1-1-1-1-|
|---2--2-2-2-2-2-2-2-2-2-2-2-2-2-2-2-|
|---2--2-2-2-2-2-2-2-2-2-2-2-2-2-2-2-|
|---0----------0-------------0-------|
|------------------------------------|
|
|~~~~~~
|  +E    H               Q       E
|------------------------------------|
|-(10)-------------------------------|
|------------------------------------|
|------------------------------------|
|------------------------------------|
|------------------------------------|


  Em
  Q  S S S S E S S S S S S   Q  S S S S E S S S S S S
|-0--0-0-0-0-0-0-0-0-0-0-0-|-0--0-0-0-0-0-0-0-0-0-0-0--||
|-0--0-0-0-0-0-0-0-0-0-0-0-|-0--0-0-0-0-0-0-0-0-0-0-0-o||
|-0--0-0-0-0-0-0-0-0-0-0-0-|-0--0-0-0-0-0-0-0-0-0-0-0--||
|-2--2-2-2-2-2-2-2-2-2-2-2-|-2--2-2-2-2-2-2-2-2-2-2-2--||
|-2--2-2-2-2-2-2-2-2-2-2-2-|-2--2-2-2-2-2-2-2-2-2-2-2-o||
|-0----------0-------------|-0----------0--------------||
|
| W                          W
|--------------------------|---------------------------||
|--------------------------|--------------------------o||
|--------------------------|---------------------------||
|--------------------------|---------------------------||
|--------------------------|--------------------------o||
|--------------------------|---------------------------||


 Chorus
  G                        D                          Em
  Q  S S S S E S S S S S S   Q  S S S S E S S S S S S
|-3--3-3-3-3-3-3-3-3-3-3-3-|-2--2-2-2-2-2-2-2-2-2-2-2-|
|-3--3-3-3-3-3-3-3-3-3-3-3-|-3--3-3-3-3-3-3-3-3-3-3-3-|
|-4--4-4-4-4-4-4-4-4-4-4-4-|-2--2-2-2-2-2-2-2-2-2-2-2-|
|-5--5-5-5-5-5-5-5-5-5-5-5-|-0--0-0-0-0-0-0-0-0-0-0-0-|
|-5--5-5-5-5-5-5-5-5-5-5-5-|--------------------------|
|-3--3-3-3-3-3-3-3-3-3-3-3-|--------------------------|
|
| W                          W
|--------------------------|--------------------------|
|--------------------------|--------------------------|
|--------------------------|--------------------------|
|--------------------------|--------------------------|
|--------------------------|--------------------------|
|--------------------------|--------------------------|


  S S S S S S S S S S S S S S S S    Q         S S S S  E   S S S S S  S
|-0-0-0-0-0-0-0-0-0-0-0-0-0-0-0-0-|--0---------0-0-0-0--0---0-0-0-0-0--0----|
|-0-0-0-0-0-0-0-0-0-0-0-0-0-0-0-0-|--0---------0-0-0-0--0---0-0-0-0-0--0----|
|-0-0-0-0-0-0-0-0-0-0-0-0-0-0-0-0-|--0---------0-0-0-0--0---0-0-0-0-0--0----|
|-2-2-2-2-2-2-2-2-2-2-2-2-2-2-2-2-|--2---------2-2-2-2--2---2-2-2-2-2--2----|
|-2-2-------2-------------2-------|--2---------2--------2-------------------|
|-0---------0-------------0-------|--0------------------0-------------------|
|
| W                                  S +S  S S S S S S  S S S S S S E
|---------------------------------|-----------------------------------------|
|---------------------------------|-----------------------------------------|
|---------------------------------|-/9-(9)-0-5-7----------------------------|
|---------------------------------|--------------9p7-5\-7-7-9-7-7-9-7\------|
|---------------------------------|-----------------------------------------|
|---------------------------------|-----------------------------------------|


  G                         D                          Em
   Q  S S S S E S S S S S S   Q  S S S S E S S S S S S
|--3--3-3-3-3-3-3-3-3-3-3-3-|-2--2-2-2-2-2-2-2-2-2-2-2-|
|--3--3-3-3-3-3-3-3-3-3-3-3-|-3--3-3-3-3-3-3-3-3-3-3-3-|
|--4--4-4-4-4-4-4-4-4-4-4-4-|-2--2-2-2-2-2-2-2-2-2-2-2-|
|--5--5-5-5-5-5-5-5-5-5-5-5-|-0--0-0-0-0-0-0-0-0-0-0-0-|
|--5--5-5-5-5-5-5-5-5-5-5-5-|--------------------------|
|--3--3-3-3-3-3-3-3-3-3-3-3-|--------------------------|
|
|  ~~
|  W                          W
|---------------------------|--------------------------|
|---------------------------|--------------------------|
|-/5------------------------|--------------------------|
|---------------------------|--------------------------|
|---------------------------|--------------------------|
|---------------------------|--------------------------|


  Q  S S S S E S S S S S S   Q   S S S  S E S S S  S S S
|-0--0-0-0-0-0-0-0-0-0-0-0-|-0---0-0-0--0-0-0-0-0--0-0-0----|
|-0--0-0-0-0-0-0-0-0-0-0-0-|-0---0-0-0--0-0-0-0-0--0-0-0----|
|-0--0-0-0-0-0-0-0-0-0-0-0-|-0---0-0-0--0-0-0-0-0--0-0-0----|
|-2--2-2-2-2-2-2-2-2-2-2-2-|-2---2-2-2--2-2-2-2-2--2-2-2----|
|-2--2-------2-------------|-2---2--------2-----------------|
|-0----------0-------------|-0------------0-----------------|
|
|                                ~~~~~~~~~~~~~~~~~~~~~~
| W                          Q   E   E    E E   E    E
|--------------------------|--------------------------------|
|--------------------------|---------8\---7-----------------|
|--------------------------|----/9----------9---7\---9------|
|--------------------------|--------------------------------|
|--------------------------|--------------------------------|
|--------------------------|--------------------------------|


 Chorus
  C                         Emadd9/A                    Em
  Q   S S S S E S S S S S S   Q   S S S S E S S S S S S
|-0---0-x-0-x-0-x-0-0-0-0-0-|-0---0-x-0-x-0-x-0-0-0-0-0-|
|-1---1-x-1-x-1-x-1-1-1-1-1-|-3---3-x-3-x-3-x-3-3-3-3-3-|
|-0---0-x-0-x-0-x-0-0-0-0-0-|-0---0-x-0-x-0-x-0-0-0-0-0-|
|-2---2-x-2-x-2-x-2-2-2-2-2-|-4---4-x-4-x-4-x-4-4-4-4-4-|
|-3---3-x-3-x-3-x-3-3-3-3-3-|-5---5-x-5-x-5-x-5-5-5-5-5-|
|---------------------------|-5---5-x---x-5---5---5-5-5-|
|
| W                           W
|---------------------------|---------------------------|
|---------------------------|---------------------------|
|-5\------------------------|-7\------------------------|
|---------------------------|---------------------------|
|---------------------------|---------------------------|
|---------------------------|---------------------------|


  Q  S S S S E S S S S S S    S  S S S S S S S S S S S S S S S
|-0--0-0-0-0-0-0-0-0-0-0-0-|--0--0-0-0-0-0-0-0-0-0-0-0-0-0-0-0--|
|-0--0-0-0-0-0-0-0-0-0-0-0-|--0--0-0-0-0-0-0-0-0-0-0-0-0-0-0-0--|
|-0--0-0-0-0-0-0-0-0-0-0-0-|--0--0-0-0-0-0-0-0-0-0-0-0-0-0-0-0--|
|-2--2-2-2-2-2-2-2-2-2-2-2-|--2--2-2-2-2-2-2-2-2-2-2-2-2-2-2-2--|
|-2--2-------2-------------|--2--2-------2-------------2--------|
|-0----------0-------------|--0----------0-------------0--------|
|
| W                          +W
|--------------------------|------------------------------------|
|--------------------------|------------------------------------|
|-9------------------------|-(9)--------------------------------|
|--------------------------|------------------------------------|
|--------------------------|------------------------------------|
|--------------------------|------------------------------------|


  C                         Emadd9/A                    Em
  Q   S S S S E S S S S S S   Q   S S S S E S S S S S S
|-0---0-x-0-x-0-x-0-0-0-0-0-|-0---0-x-0-x-0-x-0-0-0-0-0-|
|-1---1-x-1-x-1-x-1-1-1-1-1-|-3---3-x-3-x-3-x-3-3-3-3-3-|
|-0---0-x-0-x-0-x-0-0-0-0-0-|-0---0-x-0-x-0-x-0-0-0-0-0-|
|-2---2-x-2-x-2-x-2-2-2-2-2-|-4---4-x-4-x-4-x-4-4-4-4-4-|
|-3---3-x-3-x-3-x-3-3-3-3-3-|-5---5-x-5-x-5-x-5-5-5-5-5-|
|---------------------------|-5-----------5-------------|
|
| W                           W
|---------------------------|---------------------------|
|---------------------------|---------------------------|
|-5\------------------------|-7\------------------------|
|---------------------------|---------------------------|
|---------------------------|---------------------------|
|---------------------------|---------------------------|


  Q   S S S S E S S S S S S   S S  S  S S S S S S S S S S S S S
|-0---0-0-0-0-0-0-0-0-0-0-0-|-0-0--0--0-0-0-0-0-0-0-0-0-0-0-0-0--|
|-0---0-0-0-0-0-0-0-0-0-0-0-|-0-0--0--0-0-0-0-0-0-0-0-0-0-0-0-0--|
|-0---0-0-0-0-0-0-0-0-0-0-0-|-0-0--0--0-0-0-0-0-0-0-0-0-0-0-0-0--|
|-2---2-2-2-2-2-2-2-2-2-2-2-|-2-2--2--2-2-2-2-2-2-2-2-2-2-2-2-2--|
|-2---2-------2-------------|-2-2---------2-------------2--------|
|-0-----------0-------------|-0-----------0-------------0--------|
|
| W                           E   +E    E   E   E   E   E   E
|---------------------------|------------------------------------|
|---------------------------|------------------------------------|
|-9\------------------------|-4---(4)---7p==5h==7p==5h==7---5----|
|---------------------------|------------------------------------|
|---------------------------|------------------------------------|
|---------------------------|------------------------------------|


   visit the intro
    Em                            D
    Gtr I
     S S Q      S S Q       S S E
||--------------------------------|
||o-------------------------------|
||-----9----------7---------------|
||--/9---9-----/7---7-------4-5-7-|
||o-------------------------------|
||--------------------------------|
|
|   Gtr II
|    Q     S S  S S S S S S E   E
||---0-----0-0--0-0-0-0-0-0-0---0-|
||o--0-----0-0--0-0-0-0-0-0-0---0-|
||---0-----0-0--0-2-2-2-2-2-2---2-|
||---2-----2-2--2-2-2-2-2-2-2---2-|
||o--2-----2-2--0-0-0-0-0-0-0---0-|
||---0-----0-0--0-----------------|


                                  Em
   S S Q      S S Q       S S S S   a H          +E  S S E   S S
|---------------------------------|-------------------------------|
|---------------------------------|-------------------------------|
|----7----------7-----------------|-------------------------------|
|-/7---7-----/4---4-------5-4-----|-------------------------------|
|-----------------------------7-5-|-5s7----------(7)-4-5-7---4-5--|
|---------------------------------|-------------------------------|
|
|  Q     S S  S S S S S S E   E       Q  S S S S  E  S S S S S S
|--2-----2-2--2-2-2-2-2-2-2---2---|---0--0-0-0-0--0--0-0-0-0-0-0--|
|--3-----3-3--3-3-3-3-3-3-3---3---|---0--0-0-0-0--0--0-0-0-0-0-0--|
|--2-----2-2--2-2-2-2-2-2-2---2---|---0--0-0-0-0--0--0-0-0-0-0-0--|
|--0-----0-0--0-0-0-0-0-0-0---0---|---2--2-2-2-2--2--2-2-2-2-2-2--|
|---------------------------------|---2--2-2-2-2--2--2-2-2-2-2-2--|
|---------------------------------|---0--------------0------------|


  Em                           C                                   Emadd9/A
  W                                E +E  Q       S E   S +S  S S S
|---------------------------||-||----------------------------------|
|--------------------------o||-||o---------------------------------|
|---------------------------||-||----------------------------------|
|---------------------------||-||--2-(2)---------5-5---------------|
|-7------------------------o||-||o-------3-------------5-(5)-5-3-5-|
|---------------------------||-||----------------------------------|
|
| Q  S S S S E S S S S S S         Q     S S S S E   S S  S  S S S
|-0--0-0-0-0-0-0-0-0-0-0-0--||-||--0-----0-x-0-x-0---x-0--0--0-0-0-|
|-0--0-0-0-0-0-0-0-0-0-0-0-o||-||o-1-----1-x-1-x-1---x-1--1--1-1-1-|
|-0--0-0-0-0-0-0-0-0-0-0-0--||-||--0-----0-x-0-x-0---x-0--0--0-0-0-|
|-2--2-2-2-2-2-2-2-2-2-2-2--||-||--2-----2-x-2-x-2---x-2--2--2-2-2-|
|-2--2-2-2-2-2-2-2-2-2-2-2-o||-||o-3-------------3-----------------|
|-0------------0------------||-||----------------------------------|


  +E  S S Q       E +S  S +S  E   S
|-----------------------------------|
|-----------------------------------|
|-----------------------------------|
|-----------------7-(7)-------------|
|-(5)-7-7-5-------------7-(7)-5---5-|
|-----------------------------------|
|
|  Q      S S S S E  S  S  S  S S S
|--0------0-x-0-x-0--x--0--0--0-0-0-|
|--3------3-x-3-x-3--x--3--3--3-3-3-|
|--0------0-x-0-x-0--x--0--0--0-0-0-|
|--4------4-x-4-x-4--x--4--4--4-4-4-|
|--5------5-x-5-x-5--x--5--5--5-5-5-|
|--5--------------------------------|


  Em
  W
|---------------------------------|
|---------------------------------|
|---------------------------------|
|---------------------------------|
|-7-------------------------------|
|---------------------------------|
|
| S S S S S S S S S S S S S S S S
|-0-0-0-0-0-0-0-0-0-0-0-0-0-0-0-0-|
|-0-0-0-0-0-0-0-0-0-0-0-0-0-0-0-0-|
|-0-0-0-0-0-0-0-0-0-0-0-0-0-0-0-0-|
|-2-2-2-2-2-2-2-2-2-2-2-2-2-2-2-2-|
|-2-2-------2-------------2-------|
|-0---------0-------------0-------|


  +W                             H.      S E.
|-----------------------------||--------------|
|----------------------------o||--------------|
|-----------------------------||---------0-2--|
|-----------------------------||--------------|
|-(7)------------------------o||--------------|
|-----------------------------||--------------|
|
|  Q   S S S S E S S S S S S     H.      Q
|--0---0-0-0-0-0-0-0-0-0-0-0--||-0------------|
|--0---0-0-0-0-0-0-0-0-0-0-0-o||-0------------|
|--0---0-0-0-0-0-0-0-0-0-0-0--||-0------------|
|--2---2-2-2-2-2-2-2-2-2-2-2--||-2------------|
|--2---2-------2-------------o||-2------------|
|--0-----------0--------------||-0------------|


 Pre-Chorus
  Gtr I
  Q  S S S S E S S S S S S
|-0--0-0-0-0-0-0-0-0-0-0-0-|
|-0--0-0-0-0-0-0-0-0-0-0-0-|
|-0--0-0-0-0-0-0-0-0-0-0-0-|
|-2--2-2-2-2-2-2-2-2-2-2-2-|
|-2--2-------2-------------|
|-0----------0-------------|
|
| Gtr III
| W
|--------------------------|
|--------------------------|
|--------------------------|
|--------------------------|
|--------------------------|
|--------------------------|


  Q  S S S S E S S S S S S   Q  S S S S E S S S S S S
|-0--0-0-0-0-0-0-0-0-0-0-0-|-0--0-0-0-0-0-0-0-0-0-0-0-|
|-0--0-0-0-0-0-0-0-0-0-0-0-|-0--0-0-0-0-0-0-0-0-0-0-0-|
|-0--0-0-0-0-0-0-0-0-0-0-0-|-0--0-0-0-0-0-0-0-0-0-0-0-|
|-2--2-2-2-2-2-2-2-2-2-2-2-|-2--2-2-2-2-2-2-2-2-2-2-2-|
|-2--2-------2-------------|-2--2-------2-------------|
|-0----------0-------------|-0----------0-------------|
|
| W                          W
|--------------------------|--------------------------|
|--------------------------|--------------------------|
|--------------------------|--------------------------|
|--------------------------|--------------------------|
|--------------------------|--------------------------|
|--------------------------|--------------------------|


  Q  S S S S E S S S S S S   Q   S S  S S E  S S  S S S S
|-0--0-0-0-0-0-0-0-0-0-0-0-|-0---0-0--0-0-0--0-0--0-0-0-0-|
|-0--0-0-0-0-0-0-0-0-0-0-0-|-1---1-1--1-1-1--1-1--1-1-1-1-|
|-0--0-0-0-0-0-0-0-0-0-0-0-|-2---2-2--2-2-2--2-2--2-2-2-2-|
|-2--2-2-2-2-2-2-2-2-2-2-2-|-2---2-2--2-2-2--2-2--2-2-2-2-|
|-2--2-------2-------------|-0------------0---------------|
|-0----------0-------------|------------------------------|
|
|                                                 ~~~~~~~~~
| W                          Q.       E   Q       Q
|--------------------------|------------------------------|
|--------------------------|--------------8\-----10-------|
|--------------------------|---------/9-------------------|
|--------------------------|------------------------------|
|--------------------------|------------------------------|
|--------------------------|------------------------------|


    S  S S S S S S S S S S S S S S S
|---0--0-0-0-0-0-0-0-0-0-0-0-0-0-0-0-|
|---1--1-1-1-1-1-1-1-1-1-1-1-1-1-1-1-|
|---2--2-2-2-2-2-2-2-2-2-2-2-2-2-2-2-|
|---2--2-2-2-2-2-2-2-2-2-2-2-2-2-2-2-|
|---0----------0-------------0-------|
|------------------------------------|
|
|~~~~~~
|  +E    H               Q       E
|------------------------------------|
|-(10)-------------------------------|
|------------------------------------|
|------------------------------------|
|------------------------------------|
|------------------------------------|


 Chorus
  G                        D                          Em
  Q  S S S S E S S S S S S   Q  S S S S E S S S S S S
|-3--3-3-3-3-3-3-3-3-3-3-3-|-2--2-2-2-2-2-2-2-2-2-2-2-|
|-3--3-3-3-3-3-3-3-3-3-3-3-|-3--3-3-3-3-3-3-3-3-3-3-3-|
|-4--4-4-4-4-4-4-4-4-4-4-4-|-2--2-2-2-2-2-2-2-2-2-2-2-|
|-5--5-5-5-5-5-5-5-5-5-5-5-|-0--0-0-0-0-0-0-0-0-0-0-0-|
|-5--5-5-5-5-5-5-5-5-5-5-5-|--------------------------|
|-3--3-3-3-3-3-3-3-3-3-3-3-|--------------------------|
|
| W                          W
|--------------------------|--------------------------|
|--------------------------|--------------------------|
|--------------------------|--------------------------|
|--------------------------|--------------------------|
|--------------------------|--------------------------|
|--------------------------|--------------------------|


  Q  S S S S E S S S S S S    Q        S S S  S  E S S S S S S
|-0--0-0-0-0-0-0-0-0-0-0-0-|--0--------0-0-0--0--0-0-0-0-0-0-0---|
|-0--0-0-0-0-0-0-0-0-0-0-0-|--0--------0-0-0--0--0-0-0-0-0-0-0---|
|-0--0-0-0-0-0-0-0-0-0-0-0-|--0--------0-0-0--0--0-0-0-0-0-0-0---|
|-2--2-2-2-2-2-2-2-2-2-2-2-|--2--------2-2-2--2--2-2-2-2-2-2-2---|
|-2--2-------2-------------|--2--------2---------2---------------|
|-0----------0-------------|--0------------------0---------------|
|
|                             ~~~~~~~~~~~~~~~
| W                           S S  S S S S S +S  H
|--------------------------|-------------------------------------|
|--------------------------|----8\-7-----------------------------|
|--------------------------|-/9------9-7-------------------------|
|--------------------------|-------------9-7-(7)-----------------|
|--------------------------|-------------------------------------|
|--------------------------|-------------------------------------|


  G                        D                          Em
  Q  S S S S E S S S S S S   Q  S S S S E S S S S S S
|-3--3-3-3-3-3-3-3-3-3-3-3-|-2--2-2-2-2-2-2-2-2-2-2-2-|
|-3--3-3-3-3-3-3-3-3-3-3-3-|-3--3-3-3-3-3-3-3-3-3-3-3-|
|-4--4-4-4-4-4-4-4-4-4-4-4-|-2--2-2-2-2-2-2-2-2-2-2-2-|
|-5--5-5-5-5-5-5-5-5-5-5-5-|-0--0-0-0-0-0-0-0-0-0-0-0-|
|-5--5-5-5-5-5-5-5-5-5-5-5-|--------------------------|
|-3--3-3-3-3-3-3-3-3-3-3-3-|--------------------------|
|
| W                          W
|--------------------------|--------------------------|
|--------------------------|--------------------------|
|--------------------------|--------------------------|
|--------------------------|--------------------------|
|--------------------------|--------------------------|
|--------------------------|--------------------------|


  Q   S S S S E S S   S S S S    Q           S  S  S S E   S  S S S S  S
|-0---0-0-0-0-0-0-0---0-0-0-0-|--0-----------0--0--0-0-0---0--0-0-0-0--0--|
|-0---0-0-0-0-0-0-0---0-0-0-0-|--0-----------0--0--0-0-0---0--0-0-0-0--0--|
|-0---0-0-0-0-0-0-0---0-0-0-0-|--0-----------0--0--0-0-0---0--0-0-0-0--0--|
|-2---2-2-2-2-2-2-2---2-2-2-2-|--2-----------2--2--2-2-2---2--2-2-2-2--2--|
|-2-----------2---------------|--2---------------------2------------------|
|-------------0---------------|------------------------0------------------|
|
| H.                  Q          S  S  S   S S  S  S S S S S  S S S S  S
|-----------------------------|-------------------------------------------|
|-----------------------------|-------------------------------------------|
|-------------------/12-------|-12-11h12\-11p9-11\-9p7-9p7-5\-4-----------|
|-----------------------------|---------------------------------7-9-7\-5--|
|-----------------------------|-------------------------------------------|
|-----------------------------|-------------------------------------------|


  C                         Emadd9/A                    Em
  Q   S S S S E S S S S S S   Q   S S S S E S S S S S S
|-0---0-x-0-x-0-x-0-0-0-0-0-|-0---0-x-0-x-0-x-0-0-0-0-0-|
|-1---1-x-1-x-1-x-1-1-1-1-1-|-3---3-x-3-x-3-x-3-3-3-3-3-|
|-0---0-x-0-x-0-x-0-0-0-0-0-|-0---0-x-0-x-0-x-0-0-0-0-0-|
|-2---2-x-2-x-2-x-2-2-2-2-2-|-4---4-x-4-x-4-x-4-4-4-4-4-|
|-3---3-x-3-x-3-x-3-3-3-3-3-|-5---5-x-5-x-5-x-5-5-5-5-5-|
|---------------------------|-5-----------5-------------|
|
| W                           W
|---------------------------|---------------------------|
|---------------------------|---------------------------|
|-5\------------------------|-7\------------------------|
|---------------------------|---------------------------|
|---------------------------|---------------------------|
|---------------------------|---------------------------|


  Q   S S S S E S S S S S S    S  S S S S S S S S S S S S S S S
|-0---0-0-0-0-0-0-0-0-0-0-0-|--0--0-0-0-0-0-0-0-0-0-0-0-0-0-0-0--|
|-0---0-0-0-0-0-0-0-0-0-0-0-|--0--0-0-0-0-0-0-0-0-0-0-0-0-0-0-0--|
|-0---0-0-0-0-0-0-0-0-0-0-0-|--0--0-0-0-0-0-0-0-0-0-0-0-0-0-0-0--|
|-2---2-2-2-2-2-2-2-2-2-2-2-|--2--2-2-2-2-2-2-2-2-2-2-2-2-2-2-2--|
|-2---2-------2-------------|--2--2-------2-------------2--------|
|-0-----------0-------------|--0----------0-------------0--------|
|
| W                           +W
|---------------------------|------------------------------------|
|---------------------------|------------------------------------|
|-9\------------------------|-(9)--------------------------------|
|---------------------------|------------------------------------|
|---------------------------|------------------------------------|
|---------------------------|------------------------------------|


  C                         Emadd9/A                    Em
  Q   S S S S E S S S S S S   Q   S S S S E S S S S S S
|-0---0-x-0-x-0-x-0-0-0-0-0-|-0---0-x-0-x-0-x-0-0-0-0-0-|
|-1---1-x-1-x-1-x-1-1-1-1-1-|-3---3-x-3-x-3-x-3-3-3-3-3-|
|-0---0-x-0-x-0-x-0-0-0-0-0-|-0---0-x-0-x-0-x-0-0-0-0-0-|
|-2---2-x-2-x-2-x-2-2-2-2-2-|-4---4-x-4-x-4-x-4-4-4-4-4-|
|-3---3-x-3-x-3-x-3-3-3-3-3-|-5---5-x-5-x-5-x-5-5-5-5-5-|
|---------------------------|-5-----------5-------------|
|
| W                           W
|---------------------------|---------------------------|
|---------------------------|---------------------------|
|-5\------------------------|-7\------------------------|
|---------------------------|---------------------------|
|---------------------------|---------------------------|
|---------------------------|---------------------------|


  Q   S S S S E S S S S S S    S  S S S S S S S S S S S S S S S
|-0---0-0-0-0-0-0-0-0-0-0-0-|--0--0-0-0-0-0-0-0-0-0-0-0-0-0-0-0--|
|-0---0-0-0-0-0-0-0-0-0-0-0-|--0--0-0-0-0-0-0-0-0-0-0-0-0-0-0-0--|
|-0---0-0-0-0-0-0-0-0-0-0-0-|--0--0-0-0-0-0-0-0-0-0-0-0-0-0-0-0--|
|-2---2-2-2-2-2-2-2-2-2-2-2-|--2--2-2-2-2-2-2-2-2-2-2-2-2-2-2-2--|
|-2---2-------2-------------|--2--2-------2-------------2--------|
|-0-----------0-------------|--0----------0-------------0--------|
|
| W                           +W
|---------------------------|------------------------------------|
|---------------------------|------------------------------------|
|-9\------------------------|-(9)--------------------------------|
|---------------------------|------------------------------------|
|---------------------------|------------------------------------|
|---------------------------|------------------------------------|


 Guitar Solo
  C                                   Emadd9/A                         Em
  Q         S S S S E   S S S S S  S    Q        S S S S E S S S S S S
|-0---------0-x-0-x-0---x-0-0-0-0--0--|-0--------0-x-0-x-0-x-0-0-0-0-0-|
|-1---------1-x-1-x-1---x-1-1-1-1--1--|-3--------3-x-3-x-3-x-3-3-3-3-3-|
|-0---------0-x-0-x-0---x-0-0-0-0--0--|-0--------0-x-0-x-0-x-0-0-0-0-0-|
|-2---------2-x-2-x-2---x-2-2-2-2--2--|-4--------4-x-4-x-4-x-4-4-4-4-4-|
|-3---------3-x-3-x-3---x-3-3-3-3--3--|-5--------5-x-5-x-5-x-5-5-5-5-5-|
|-------------------------------------|-5----------------5-------------|
|
| Gtr IV
| S  S  S S S S S S S S S S S S S +S    S  S S S S S S S E E   E   E
|-------------------------------------|--------------------------------|
|-8-------7-----7---------------------|--------------------------------|
|----9------7-----7---7-9-7---5-------|-4--5-4-------------------------|
|------10-----9-----7-------9---7-(7)-|--------7-5-7-4-5-4-5---4---5---|
|-------------------------------------|--------------------------------|
|-------------------------------------|--------------------------------|
|
| Gtr III
| W                                     W
|-------------------------------------|--------------------------------|
|-------------------------------------|--------------------------------|
|-5\----------------------------------|-7\-----------------------------|
|-------------------------------------|--------------------------------|
|-------------------------------------|--------------------------------|
|-------------------------------------|--------------------------------|


  Q   S S  S  S   E S S  S S S S     S   S  S  S S  S S S S S S S S S S S
|-0---0-0--0--0---0-0-0--0-0-0-0-|---0---0--0--0-0--0-0-0-0-0-0-0-0-0-0-0--|
|-0---0-0--0--0---0-0-0--0-0-0-0-|---0---0--0--0-0--0-0-0-0-0-0-0-0-0-0-0--|
|-0---0-0--0--0---0-0-0--0-0-0-0-|---0---0--0--0-0--0-0-0-0-0-0-0-0-0-0-0--|
|-2---2-2--2--2---2-2-2--2-2-2-2-|---2---2--2--2-2--2-2-2-2-2-2-2-2-2-2-2--|
|-2---2-----------2--------------|---2---2----------2-------------2--------|
|-0---------------0--------------|---0--------------0-------------0--------|
|
| Q.      +E      Q      Q          +S   S  E    H.
|--------------------------------|-----------------------------------------|
|--------------------------------|-----------------------------------------|
|-----------------------12-------|-(12)-12---------------------------------|
|-9-------(9)---/14--------------|---------14\-----------------------------|
|--------------------------------|-----------------------------------------|
|--------------------------------|-----------------------------------------|
|
| W                                 +W
|--------------------------------|-----------------------------------------|
|--------------------------------|-----------------------------------------|
|-9\-----------------------------|--(9)------------------------------------|
|--------------------------------|-----------------------------------------|
|--------------------------------|-----------------------------------------|
|--------------------------------|-----------------------------------------|


  C                                 Emadd9/A                            Em
  Q         S S S S E   S S S S S S   Q        S S S S  E   S S S S S S
|-0---------0-x-0-x-0---x-0-0-0-0-0-|-0--------0-x-0-x--0---x-0-0-0-0-0-|
|-1---------1-x-1-x-1---x-1-1-1-1-1-|-3--------3-x-3-x--3---x-3-3-3-3-3-|
|-0---------0-x-0-x-0---x-0-0-0-0-0-|-0--------0-x-0-x--0---x-0-0-0-0-0-|
|-2---------2-x-2-x-2---x-2-2-2-2-2-|-4--------4-x-4-x--4---x-4-4-4-4-4-|
|-3---------3-x-3-x-3---x-3-3-3-3-3-|-5--------5-x-5-x--5---x-5-5-5-5-5-|
|-----------------------------------|-5-----------------5---------------|
|
| S  S  S S S S S S S S S S S S S S   S  S S S S S S S  S S S S Q
|-----------------------------------|-----------------------------------|
|-8-------7-----7-----7-------------|-----------------------------------|
|----9------7-----7-----7---7---5---|-4--5-4----------------------------|
|------10-----9-----7-----9---9---7-|--------7-5-7-5-7\-9-7-5-7-7-------|
|-----------------------------------|-----------------------------------|
|-----------------------------------|-----------------------------------|
|
| W                                   W
|-----------------------------------|-----------------------------------|
|-----------------------------------|-----------------------------------|
|-5\--------------------------------|-7\--------------------------------|
|-----------------------------------|-----------------------------------|
|-----------------------------------|-----------------------------------|
|-----------------------------------|-----------------------------------|


  Q   S S S S E    S S S S S S    S  S S  S S S S S S S S S S S S S
|-0---0-0-0-0-0----0-0-0-0-0-0-|--0--0-0--0-0-0-0-0-0-0-0-0-0-0-0-0----|
|-0---0-0-0-0-0----0-0-0-0-0-0-|--0--0-0--0-0-0-0-0-0-0-0-0-0-0-0-0----|
|-0---0-0-0-0-0----0-0-0-0-0-0-|--0--0-0--0-0-0-0-0-0-0-0-0-0-0-0-0----|
|-2---2-2-2-2-2----2-2-2-2-2-2-|--2--2-2--2-2-2-2-2-2-2-2-2-2-2-2-2----|
|-2---2-------2----------------|--2--2--------2-------------2----------|
|-0-----------0----------------|--0-----------0-------------0----------|
|
| H           S  S S S Q          S  S S  S S S S S H
|------------------------------|---------------------------------------|
|----------------------7h======|==8--7h8h10-8-7h8-7--------------------|
|------------------7-9---------|---------------------------------------|
|-------------7\-9-------------|---------------------------------------|
|------------------------------|---------------------------------------|
|------------------------------|---------------------------------------|
|
| W                              +W
|------------------------------|---------------------------------------|
|------------------------------|---------------------------------------|
|-9\---------------------------|-(9)-----------------------------------|
|------------------------------|---------------------------------------|
|------------------------------|---------------------------------------|
|------------------------------|---------------------------------------|


  C                         Emadd9/A                    Em
  Q   S S S S E S S S S S S   Q   S S S S E S S S S S S
|-0---0-x-0-x-0-x-0-0-0-0-0-|-0---0-x-0-x-0-x-0-0-0-0-0-|
|-1---1-x-1-x-1-x-1-1-1-1-1-|-3---3-x-3-x-3-x-3-3-3-3-3-|
|-0---0-x-0-x-0-x-0-0-0-0-0-|-0---0-x-0-x-0-x-0-0-0-0-0-|
|-2---2-x-2-x-2-x-2-2-2-2-2-|-4---4-x-4-x-4-x-4-4-4-4-4-|
|-3---3-x-3-x-3-x-3-3-3-3-3-|-5---5-x-5-x-5-x-5-5-5-5-5-|
|---------------------------|-5-----------5-------------|
|
| H           H               H           H
|---------------------------|---------------------------|
|---------------------------|---------------------------|
|-9-------------------------|---------------------------|
|---------------------------|---------------------------|
|---------------------------|---------------------------|
|---------------------------|---------------------------|
|
| W                           W
|---------------------------|---------------------------|
|---------------------------|---------------------------|
|-5\------------------------|-7\------------------------|
|---------------------------|---------------------------|
|---------------------------|---------------------------|
|---------------------------|---------------------------|


  Q        S S    S  S  E       S  S    S S  S  S    S  S S S S S S S S S S  S S S S S
|-0--------0-0----0--0--0-------0--0----0-0--0--0-|--0--0-0-0-0-0-0-0-0-0-0--0-0-0-0-0----|
|-0--------0-0----0--0--0-------0--0----0-0--0--0-|--0--0-0-0-0-0-0-0-0-0-0--0-0-0-0-0----|
|-0--------0-0----0--0--0-------0--0----0-0--0--0-|--0--0-0-0-0-0-0-0-0-0-0--0-0-0-0-0----|
|-2--------2-2----2--2--2-------2--2----2-2--2--2-|--2--2-2-2-2-2-2-2-2-2-2--2-2-2-2-2----|
|-2--------2------------2-------------------------|--2--2-------2--------------2----------|
|-0---------------------0-------------------------|--0----------0--------------0----------|
|
| S  S S S S S    S  S  S S     S  S    E   +E       S  S S S S S S S S S S  S Q
|-------------------------------------------------|---------------------------------------|
|--------8-7-8b10-7-(7)-7-8b10-(7)-8b10r7---(7)---|---------------------------------------|
|------9------------------------------------------|--9--7-9---7---------------------------|
|----9--------------------------------------------|---------9---7-9-5-7-5-7\-9-7----------|
|-7-----------------------------------------------|---------------------------------------|
|-------------------------------------------------|---------------------------------------|
|
| W                                                 +W
|-------------------------------------------------|---------------------------------------|
|-------------------------------------------------|---------------------------------------|
|-9\----------------------------------------------|-(9)-----------------------------------|
|-------------------------------------------------|---------------------------------------|
|-------------------------------------------------|---------------------------------------|
|-------------------------------------------------|---------------------------------------|


  C                         Emadd9/A                    Em
  Q   S S S S E S S S S S S   Q   S S S S E S S S S S S
|-0---0-x-0-x-0-x-0-0-0-0-0-|-0---0-x-0-x-0-x-0-0-0-0-0-|
|-1---1-x-1-x-1-x-1-1-1-1-1-|-3---3-x-3-x-3-x-3-3-3-3-3-|
|-0---0-x-0-x-0-x-0-0-0-0-0-|-0---0-x-0-x-0-x-0-0-0-0-0-|
|-2---2-x-2-x-2-x-2-2-2-2-2-|-4---4-x-4-x-4-x-4-4-4-4-4-|
|-3---3-x-3-x-3-x-3-3-3-3-3-|-5---5-x-5-x-5-x-5-5-5-5-5-|
|---------------------------|-5-----------5-------------|
|
| W                           W
|---------------------------|---------------------------|
|---------------------------|---------------------------|
|---------------------------|---------------------------|
|---------------------------|---------------------------|
|---------------------------|---------------------------|
|---------------------------|---------------------------|
|
| W                           W
|---------------------------|---------------------------|
|---------------------------|---------------------------|
|-5\------------------------|-7\------------------------|
|---------------------------|---------------------------|
|---------------------------|---------------------------|
|---------------------------|---------------------------|


  Q   S S S S  E    S  S S S S S    S  S S S S S S S S S S S S S S S
|-0---0-0-0-0--0----0--0-0-0-0-0-|--0--0-0-0-0-0-0-0-0-0-0-0-0-0-0-0-|
|-0---0-0-0-0--0----0--0-0-0-0-0-|--0--0-0-0-0-0-0-0-0-0-0-0-0-0-0-0-|
|-0---0-0-0-0--0----0--0-0-0-0-0-|--0--0-0-0-0-0-0-0-0-0-0-0-0-0-0-0-|
|-2---2-2-2-2--2----2--2-2-2-2-2-|--2--2-2-2-2-2-2-2-2-2-2-2-2-2-2-2-|
|-2---2--------2-----------------|--2--2-------2-------------2-------|
|-0------------0-----------------|--0----------0-------------0-------|
|
|              \1
| H            S  S S  S E   E      S  S S S E   E   E   E   E   E
|--------------------------------|-----------------------------------|
|--------------------------------|-----------------------------------|
|-------------12--1-8-10-----8---|-(8)-7-8-7-----7-------------------|
|------------------------9-------|-----------9-------7---9---7---5---|
|--------------------------------|-----------------------------------|
|--------------------------------|-----------------------------------|
|
| W                                +W
|--------------------------------|-----------------------------------|
|--------------------------------|-----------------------------------|
|-9\-----------------------------|-(9)-------------------------------|
|--------------------------------|-----------------------------------|
|--------------------------------|-----------------------------------|
|--------------------------------|-----------------------------------|


  C                          Emadd9/A                   Em
  Q    S S S S E S S S S S S   Q  S S S S E S S S S S S
|-0----0-x-0-x-0-x-0-0-0-0-0-|-0--0-x-0-x-0-x-0-0-0-0-0-|
|-1----1-x-1-x-1-x-1-1-1-1-1-|-3--3-x-3-x-3-x-3-3-3-3-3-|
|-0----0-x-0-x-0-x-0-0-0-0-0-|-0--0-x-0-x-0-x-0-0-0-0-0-|
|-2----2-x-2-x-2-x-2-2-2-2-2-|-4--4-x-4-x-4-x-4-4-4-4-4-|
|-3----3-x-3-x-3-x-3-3-3-3-3-|-5--5-x-5-x-5-x-5-5-5-5-5-|
|----------------------------|-5----------5-------------|
|
| E  E H             Q         W
|----------------------------|--------------------------|
|----------------------------|--------------------------|
|-7p-5-----------------------|--------------------------|
|----------------------------|--------------------------|
|----------------------------|--------------------------|
|----------------------------|--------------------------|


  Q  S S S S   E     S   S  S  S  S  S   S  S S S S S S  S S S   S S S S S S
|-0--0-0-0-0---0-----0---0--0--0--0--0-|-0--0-0-0-0-0-0--0-0-0---0-0-0-0-0-0----|
|-0--0-0-0-0---0-----0---0--0--0--0--0-|-0--0-0-0-0-0-0--0-0-0---0-0-0-0-0-0----|
|-0--0-0-0-0---0-----0---0--0--0--0--0-|-0--0-0-0-0-0-0--0-0-0---0-0-0-0-0-0----|
|-2--2-2-2-2---2-----2---2--2--2--2--2-|-2--2-2-2-2-2-2--2-2-2---2-2-2-2-2-2----|
|-2--2---------2-----------------------|-2--2-------2----------------2----------|
|-0------------0-----------------------|-0----------0----------------0----------|
|
| H            S  S  S   S  S  S  S  S   S  S S S S S S  S S T T S S S S S S
|--------------------------------------|----------------------------------------|
|--------------------------------------|----------------------------------------|
|----------------12-12\-11----11\-9----|-9\-7---7-5---5\-4---4h5-4---------4----|
|------------/14-----------12-------10-|------9-----7------5-------7-5-4-5------|
|--------------------------------------|----------------------------------------|
|--------------------------------------|----------------------------------------|


 Verse
  C                        Emadd9/A                   Em
  Q  S S S S E S S S S S S   Q  S S S S E S S S S S S
|-0--0-x-0-x-0-x-0-0-0-0-0-|-0--0-x-0-x-0-x-0-0-0-0-0-|
|-1--1-x-1-x-1-x-1-1-1-1-1-|-3--3-x-3-x-3-x-3-3-3-3-3-|
|-0--0-x-0-x-0-x-0-0-0-0-0-|-0--0-x-0-x-0-x-0-0-0-0-0-|
|-2--2-x-2-x-2-x-2-2-2-2-2-|-4--4-x-4-x-4-x-4-4-4-4-4-|
|-3--3-x-3-x-3-x-3-3-3-3-3-|-5--5-x-5-x-5-x-5-5-5-5-5-|
|--------------------------|-5----------5-------------|
|
| Gtr III
| W                          H          H
|--------------------------|--------------------------|
|--------------------------|--------------------------|
|--------------------------|--------------------------|
|-5------------------------|--------------------------|
|--------------------------|--------------------------|
|--------------------------|--------------------------|


  Q  S S S S E S S S S S S   S S S S S S S S S S S S S S S S
|-0--0-0-0-0-0-0-0-0-0-0-0-|-0-0-0-0-0-0-0-0-0-0-0-0-0-0-0-0--|
|-0--0-0-0-0-0-0-0-0-0-0-0-|-0-0-0-0-0-0-0-0-0-0-0-0-0-0-0-0--|
|-0--0-0-0-0-0-0-0-0-0-0-0-|-0-0-0-0-0-0-0-0-0-0-0-0-0-0-0-0--|
|-2--2-2-2-2-2-2-2-2-2-2-2-|-2-2-2-2-2-2-2-2-2-2-2-2-2-2-2-2--|
|-2--2-------2-------------|-2-2-------2-------------2--------|
|-0----------0-------------|-0---------0-------------0--------|
|
| H          H               H               H
|--------------------------|----------------------------------|
|--------------------------|----------------------------------|
|--------------------------|----------------------------------|
|--------------------------|----------------------------------|
|--------------------------|----------------------------------|
|--------------------------|----------------------------------|


  C                           Emadd9/A                      Em
  Q  S S S S  E   S S S S S S   Q  S S S S  E   S S S S S S
|-0--0-x-0-x--0---x-0-0-0-0-0-|-0--0-x-0-x--0---x-0-0-0-0-0-|
|-1--1-x-1-x--1---x-1-1-1-1-1-|-3--3-x-3-x--3---x-3-3-3-3-3-|
|-0--0-x-0-x--0---x-0-0-0-0-0-|-0--0-x-0-x--0---x-0-0-0-0-0-|
|-2--2-x-2-x--2---x-2-2-2-2-2-|-4--4-x-4-x--4---x-4-4-4-4-4-|
|-3--3-x-3-x--3---x-3-3-3-3-3-|-5--5-x-5-x--5---x-5-5-5-5-5-|
|-----------------------------|-5-----------5---------------|
|
| H          +H                 H          +H
|-----------------------------|-----------------------------|
|-----------------------------|-----------------------------|
|-5----------(5)\-------------|-7----------(7)\-------------|
|-----------------------------|-----------------------------|
|-----------------------------|-----------------------------|
|-----------------------------|-----------------------------|


  Q  S S S S E  S S S S S S   S S S S S S S S S S S S S S S S
|-0--0-0-0-0-0--0-0-0-0-0-0-|-0-0-0-0-0-0-0-0-0-0-0-0-0-0-0-0--*|
|-0--0-0-0-0-0--0-0-0-0-0-0-|-0-0-0-0-0-0-0-0-0-0-0-0-0-0-0-0--*|
|-0--0-0-0-0-0--0-0-0-0-0-0-|-0-0-0-0-0-0-0-0-0-0-0-0-0-0-0-0--*|
|-2--2-2-2-2-2--2-2-2-2-2-2-|-2-2-2-2-2-2-2-2-2-2-2-2-2-2-2-2--*|
|-2--2-------2--------------|-2-2-------2-------------2--------*|
|-0----------0--------------|-0---------0-------------0--------*|
|
| H          H                W
|---------------------------|----------------------------------*|
|---------------------------|----------------------------------*|
|-9----------9\-------------|-9--------------------------------*|
|---------------------------|----------------------------------*|
|---------------------------|----------------------------------*|
|---------------------------|----------------------------------*|



Duration Legend
---------------
W - whole; H - half; Q - quarter; E - 8th; S - 16th; T - 32nd; X - 64th; a - acciaccatura
+ - note tied to previous; . - note dotted; .. - note double dotted
Uncapitalized letters represent notes that are staccato (1/2 duration)
Irregular groupings are notated above the duration line
Duration letters will always appear directly above the note/fret number it represents the
duration for.  Duration letters with no fret number below them represent rests.  Multi-
bar rests are notated in the form Wxn, where n is the number of bars to rest for.  Low
melody durations appear below the staff

Tablature Legend
----------------
 h   - hammer-on
 p   - pull-off
 b   - bend
 pb  - pre-bend
 r   - bend release (if no number after the r, then release immediately)
 /\  - slide into or out of (from/to "nowhere")
 s   - legato slide
 S   - shift slide
 - natural harmonic
[n]  - artificial harmonic
n(n) - tapped harmonic
 ~   - vibrato
 tr  - trill
 T   - tap
 TP  - trem. picking
 PM  - palm muting
\n/  - tremolo bar dip; n = amount to dip
 \n  - tremolo bar down
 n/  - tremolo bar up
/n\  - tremolo bar inverted dip
 =   - hold bend; also acts as connecting device for hammers/pulls
 <> - volume swell (louder/softer)
 x   - on rhythm slash represents muted slash
 o   - on rhythm slash represents single note slash

Misc Legend
-----------
 |  - bar
||  - double bar
||o - repeat start
o|| - repeat end
*|  - double bar (ending)
 :  - bar (freetime)
 $  - Segno
 &  - Coda
Tempo markers -  = BPM(8/16=s8/s16), where s8 = swing 8ths, s16 = swing 16ths

Tap to rate this tab
# A B C D E F G H I J K L M N O P Q R S T U V W X Y Z