Song name
# A B C D E F G H I J K L M N O P Q R S T U V W X Y Z

Mgmt - Electric Feel tab

Um, i have been playing this over and over and think that this tab has to be at least 95% accurate
there are certain beats you play this in its not all like changing suddenly
THIS TAB IS THE INTRO, THE PART THAT SOUNDS LIKE A FLUTE
(first time tabbing)
if you dont understand its cuz you need to play it in the right beat...
YOUTUBE VIDEO WITH ME PLAYING IT: http://www.youtube.com/watch?v=pDbv1BODn28
THANK YOU!
play with right tuning key, which i dont now haha

|---------1---3---6---1---3----------|
|--4---------------------------------|
|------------------------------------|
|------------------------------------|
|------------------------------------|
|------------------------------------|

|-------1--------------1---1|
|--4---------1---4----------|
|---------------------------|
|---------------------------|
|---------------------------|
|---------------------------|

|-------3---1---------1--------------------------|
|--4-------------4------------1-----4--------1---|
|----------------------------------------3-------|
|------------------------------------------------|
|------------------------------------------------|
|------------------------------------------------|

|---------1---3---6---1---3----------|
|-4-4-4------------------------------|
|------------------------------------|
|------------------------------------|
|------------------------------------|
|------------------------------------|

|-------1--------------1---1|
|--4---------1---4----------|
|---------------------------|
|---------------------------|
|---------------------------|
|---------------------------|


|-------3---1---------1-----------------|
|--4-------------4------------1-----4---|
|---------------------------------------|
|---------------------------------------|
|---------------------------------------|
|---------------------------------------| 

Enjoy! 


Tap to rate this tab
 
# A B C D E F G H I J K L M N O P Q R S T U V W X Y Z