Song name
# A B C D E F G H I J K L M N O P Q R S T U V W X Y Z

Mgmt - Kids Acoustic chords

Highlighted       Show chord diagrams
Capo 2

Chords (relative to capo)
Em-C-G-G(F#)



riff (relative to capo)
                                                                             
e|-------------0--2--0------------ \
B|--------0--3----------3--0------  \
G|--0--2-------------------------2  |> x3  
D|--------------------------------  |
A|-------------------------------- /
E|--------------------------------/
                                then                                          
e|---------------------------------|
B|--------0---------------3p0-0--0-|
G|--0--2----2-0-2-0---0--------2--2|
D|------------------2--------------|
A|---------------------------------|
E|---------------------------------|
Tap to rate this tab
 
# A B C D E F G H I J K L M N O P Q R S T U V W X Y Z