Song name
# A B C D E F G H I J K L M N O P Q R S T U V W X Y Z

Mgmt - Metanoia Part 2 chords

Highlighted       Show chord diagrams
The other tab has the first half, so I'll post the second half.
I'm pretty sure I got it right.

Instrumental slide solo progression:

(I incorporated the bass on the low E string, figure out
the strumming pattern)

   C#  F# F# Fm   Em           G   F#             Fm  F#  G#
e|-----------8----0-----0------3----2----------2---1---2--4------------------|
B|-6---11-11-9----0-----0------0----2----------2---1---2--4------------------|
G|-6---11-11-10---0-----0------0----3----------3---1---3--5------------------|
D|-6---11-11-10---2-----2------0----4----------4---3---4--6------------------|
A|-4---9--9--8----2-----2------2----4----------4---3---4--6------------------|
E|----------------0-2-3-0--0-2-3--3-2--5-4-3-2-2---1---2--4------------------|
Repeat this a lot until the next part...

F              G
Tonight, under rose
F                      G
You won't find another wheel to roll
F                   G
When autumn winds appear
              F
We wear these fears on our right
         G
It just wants to be surreal 'cause
F               G
All dressed in diamond image jeans
F                      G
Mercury's found in old field
                 F
We miserable in love
                 G
And chance we walked
          F            G
Right on in, into the streets of the city but
Am                  G
Watching people disappear
        F
Without reaching out
Am
Years and years
       G             F
You're left by yourself
G        C
On the wheel

The instrumental outro is all major chord changes I believe:

    F   G   A   D   F#   F#   D   E
e|--1---3---5---5------------------------------------------------------------|
B|--1---3---5---7---11---11---7---9------------------------------------------|
G|--2---4---6---7---11---11---7---9------------------------------------------|
D|--3---5---7---7---11---11---7---9------------------------------------------|
A|--3---5---7---5---9----9----5---7------------------------------------------|
E|--1---3---5----------------------------------------------------------------|

Repeat until the end.
Tap to rate this tab
# A B C D E F G H I J K L M N O P Q R S T U V W X Y Z