Song name
# A B C D E F G H I J K L M N O P Q R S T U V W X Y Z

Mgmt - Kids tab

e|---------12-14-16-14-12----------------------------------------------------|
B|10-12-14----------------14(h)-12(h)----------------------------------------|
G|---------------------------------------------------------------------------|
D|---------------------------------------------------------------------------|
A|---------------------------------------------------------------------------|
E|---------------------------------------------------------------------------|

e|---------------------------------------------------------------------------|
B|10-12-14-12-10-12-10----10(h)----------------------------------------------|
G|---------------------11----------------------------------------------------|
D|---------------------------------------------------------------------------|
A|---------------------------------------------------------------------------|
E|---------------------------------------------------------------------------|
Tap to rate this tab
# A B C D E F G H I J K L M N O P Q R S T U V W X Y Z