Song name
# A B C D E F G H I J K L M N O P Q R S T U V W X Y Z

Mgmt - Electric Feel tab

    First off, My username is Crazy4CoCoPuffs but I forgot my log-in. Second off, I
at other tabs for this great song but couldn't find one that was easy to play. They were
so I condensed them all into this easy version. The timing is kind of tricky to get, so 
to the song closely and play along with it.

*** I haven't figured out the small solo at 2:45 so I'll be working on that and comment
once I get my log-in back. I also have yet to figure out the keyboard intro, but I'm
you can find that somewhere else.***

:D

Intro [You can also play it together with the A string in the same fret]

e|-----------------------------------|
b|-----------------------------------|
g|-----------------------------------|      x5 for intro
D|-----------------------------------|
A|-----------------------------------|
E|--8-8-8-3-4------6-6-8-8-3-4-------|

Verse + Chorus

e|-----------------------------------|
b|-----------------------------------|
g|-----------------------------------|      x4
D|--10-10-10--5-6------8-8-10-10-5-6-|
A|--10-10-10--5-6------8-8-10-10-5-6-|
E|--8--8--8---3-4------6-6-8--8--3-4-|


e|-----------------------------------|
b|-----------------------------------|
g|-----------------------------------|      x2
D|-----------------------------------|
A|-----------------------------------|
E|--8-8-8-3-4----6-6-8-8-3-4-(3-4-4)-|

Back to Verse

e|-------|
b|-------|
g|-------|    This is the solo part, ** will be added soon **
D|-------|
A|--10-8-|
E|--8--6-|

This tab is short 'cause most of the song has the keyboad part but this is most of the
used.

Remember, this is an easy version to play. If I missed any parts [which I probably did]
the chords would consist of the ones i already tabbed. :p

Thank you~ [Crazy4CoCoPuffs]
Tap to rate this tab
# A B C D E F G H I J K L M N O P Q R S T U V W X Y Z