Song name
# A B C D E F G H I J K L M N O P Q R S T U V W X Y Z

Mgmt - Electric Feel tab

e|-----------6-------------|
b|--4-4-6h8----6-8-4-6---4-|
g|---------------------5---|
d|-------------------------|
a|-------------------------|
E|-------------------------|

e|--------3----------------|
b|--6-6-4---6-4-6---4------|
g|----------------5---3-5--|
d|-------------------------|
a|-------------------------|
E|-------------------------|
Tap to rate this tab
# A B C D E F G H I J K L M N O P Q R S T U V W X Y Z