Mgmt - Kids Acoustic tab

My acoustic version of 

Kids (acoustic) by MGMT

Tab written out by Mario Cartolano (gtxviper03@hotmail.com)

Intro

e|-----------------|-0---2-0---------|-----------------|-----------------|
B|---------0---3---|-----------3-----|-0-----0---------|-----------------|
G|-0---2-----------|---0-----0-------|-----0---0---0---|-2---2-2---2-2---|
D|---2---2---2---2-|-------------0---|---0-------0-----|---0-----------0-|
A|-----------------|-3---------------|-----------------|-----------------|
E|-0---------------|-----------------|-3-------------3-|-2-------2-------|

Ending variation:

e|-----------------|-----------------|-----------------|-----------------|
B|---------0-------|-----------------|-------0---------|-----------------|
G|-0---2-------2---|-0---2-0-------0-|-0---0---0---0---|-2---2-2---2-2---|
D|---2---2---2---2-|-----------2-----|---0-------0-----|---0-----------0-|
A|-----------------|-3-3-----3---3---|-----------------|-----------------|
E|-0---------------|-----------------|-3-------------3-|-2-------2-------|
Tap to rate this tab
 
# A B C D E F G H I J K L M N O P Q R S T U V W X Y Z