Mgmt - Only A Shadow tab

Tabbed by: Diego Salazar
Country: Chile
Mail: siberianbreakks@hotmail.com

This song is a Cover of "Cleaners from Venus" it was played first time in Voodoo 
Fest Experience Music.



intro

E|---------------------------------------------------------------------|
B|------------------------------------------------------10--8--7--5----|
G|--6---4--6---4--6--9--7--6------7------6------------6-------------6--|
D|----7------7---------------7--9---7--9---7--9--7--9------------------|
A|---------------------------------------------------------------------|
E|---------------------------------------------------------------------|


pre chorus


E|---------------------|
B|---------------------|
G|--4-4-4-4---5-5------|
D|--4-4-4-4---5-5------|
A|--2-2-2-2---3-3------|
E|---------------------|


chorus


E|---------------------2-2-2----|
B|---------------------3-3-3----|
G|--4-4-4-4---6-6------2-2-2----|
D|--5-5-5-5---7-7---------------|
A|--5-5-5-5---7-7---------------|
E|--3-3-3-3---5-5---------------|
    


Enjoy it!
Tap to rate this tab
 
# A B C D E F G H I J K L M N O P Q R S T U V W X Y Z