Song name
# A B C D E F G H I J K L M N O P Q R S T U V W X Y Z

Mgmt - Siberian Breaks Live tab

-----------------------------------------------------------------------------

			     Siberian Breaks [solo](Live on KCRW) - MGMT

-----------------------------------------------------------------------------

Tabbed by: November
Email:

Tuning: Standard

e|-9-12-9--7-9-7~~~---------------------12b14prb14b12-9~7-9-----------------|
B|-------------------9-7---7-9~~12-9~~~~--------------------9~7-5-7b9-9b7---|
G|-----------------------9------------------------------------------------6-|
D|--------------------------------------------------------------------------|
A|--------------------------------------------------------------------------|
E|--------------------------------------------------------------------------|

e|--------------------------------------------------------------------------|
B|---------------------------------------------5-7-7b9-9-9-9-9b7-5-7-9b7~~--|
G|-4-6------4-6-6~~~~-6~~~~-6/8-6---6-4----4-6------------------------------|
D|-----6~~~~----------------------9-----6~~---------------------------------|
A|--------------------------------------------------------------------------|
E|--------------------------------------------------------------------------|

e|----------12b14-14-14b12-9-12-12b14b12-9/7-9p7----------------------------|
B|-7p5-------------------------------------------9-7-9~~9~~~9/10-10-9-7-5-7-|
G|-----6~~~-----------------------------------------------------------------|
D|--------------------------------------------------------------------------|
A|--------------------------------------------------------------------------|
E|--------------------------------------------------------------------------|

e|--------------------------------------------------------------------------|
B|-7~~~~7b9-9b7-5-7b9b7-5-5~~~~-7p5-----------------------------------------|
G|----------------------------------6--6-4~-4-------------------------------|
D|--------------------------------------------6~-6-4~-4/2~-2----------------|
A|-----------------------------------------------------------4~-------------|
E|--------------------------------------------------------------------------|



**So he plays something at the end after that but I cant quite make it out.. but this is 
most of it.. enjoy!






************************************

| /   slide up
| \   slide down
| h   hammer-on
| p   pull-off
| ~   vibrato
| +   harmonic
| x   Mute note
| b   Bend
| pb  Pre-bend
| br  Bend release
| pbr Pre-bend release
| brb Bend release bend

************************************
Tap to rate this tab
 
# A B C D E F G H I J K L M N O P Q R S T U V W X Y Z