Song name
# A B C D E F G H I J K L M N O P Q R S T U V W X Y Z

Mgmt - Kids tab

Intro : 

Part 1:
e|-----------------14-16-14-------------------------------|
B|-----------14-17----------17-14-------------------------|
G|-----14-16----------------------15----------------------| x 3
D|--------------------------------------------------------|
A|--------------------------------------------------------|
E|--------------------------------------------------------|

On the fourth time, small riff is added on the end.
e|-----------------14-16-14-----------------------------------------|
B|-----------14-17----------17-14---------17-14---------------------|
G|-----14-16----------------------15------------16-14--16-14-13-----| x 1
D|------------------------------------------------------------------|
A|------------------------------------------------------------------|
E|------------------------------------------------------------------|

You then repeat Part 1 (once) and this after... 
e|----------------------------------------------------------|
B|-----------14-----------------17-14-----------------------|
G|-----14-16----16-14-16-11-14--------16-14--16-14-13-------| 
D|----------------------------------------------------------|
A|----------------------------------------------------------|
E|----------------------------------------------------------|

Verse 1:

Part 1 (chords)
e|----------------------------------|
B|----------------------------------|
G|------7---------------------------| 
D|--4---7---7---6-------------------| x 2 
A|--4---5---7---6-------------------|
E|--2-------5---4-------------------|

Part 2 (riff)
(i)
e|---------------------------------------------------------------|
B|-----------------------------12-14--------------17-14----------|
G|---11-11--14-14-11-11--11-14---------14-16-14---------16-14----| 
D|---------------------------------------------------------------| x 1
A|---------------------------------------------------------------|
E|---------------------------------------------------------------|

(ii)
e|---------------------------------------------------------------|
B|-----------------------------12-14---17-14---------------------|
G|---11-11--14-14-11-11--11-14---------------16-14--16-14-13-----| 
D|---------------------------------------------------------------|
A|---------------------------------------------------------------|
E|---------------------------------------------------------------|

Chorus (Back to the INTRO...)
Part 1:
e|-----------------14-16-14-------------------------------|
B|-----------14-17----------17-14-------------------------|
G|-----14-16----------------------15----------------------| x 1
D|--------------------------------------------------------|
A|--------------------------------------------------------|
E|--------------------------------------------------------|

On the second time, add the small riff on the end.
e|-----------------14-16-14-----------------------------------------|
B|-----------14-17----------17-14---------17-14---------------------|
G|-----14-16----------------------15------------16-14--16-14-13-----| x 1
D|------------------------------------------------------------------|
A|------------------------------------------------------------------|
E|------------------------------------------------------------------|

e|-----------------14-16-14-------------------------------|
B|-----------14-17----------17-14-------------------------|
G|-----14-16----------------------15----------------------| x 1
D|--------------------------------------------------------|
A|--------------------------------------------------------|
E|--------------------------------------------------------|

You then repeat Part 1 (once) and this after... 
e|----------------------------------------------------------|
B|-----------14-----------------17-14-----------------------|
G|-----14-16----16-14-16-11-14--------16-14--16-14-13-------| 
D|----------------------------------------------------------|
A|----------------------------------------------------------|
E|----------------------------------------------------------|

VERSE 2 = part 1 (chords ONLY) 
e|----------------------------------|
B|----------------------------------|
G|------7---------------------------| 
D|--4---7---7---6-------------------| x 4 
A|--4---5---7---6-------------------|
E|--2-------5---4-------------------|

CHORUS:

Part 1:
e|-----------------14-16-14-------------------------------|
B|-----------14-17----------17-14-------------------------|
G|-----14-16----------------------15----------------------| x 1
D|--------------------------------------------------------|
A|--------------------------------------------------------|
E|--------------------------------------------------------|

On the second time, add the small riff on the end.
e|-----------------14-16-14-----------------------------------------|
B|-----------14-17----------17-14---------17-14---------------------|
G|-----14-16----------------------15------------16-14--16-14-13-----| x 1
D|------------------------------------------------------------------|
A|------------------------------------------------------------------|
E|------------------------------------------------------------------|

e|-----------------14-16-14-------------------------------|
B|-----------14-17----------17-14-------------------------|
G|-----14-16----------------------15----------------------| x 1
D|--------------------------------------------------------|
A|--------------------------------------------------------|
E|--------------------------------------------------------|

You then repeat Part 1 (once) and this after... 
e|----------------------------------------------------------|
B|-----------14-----------------17-14-----------------------|
G|-----14-16----16-14-16-11-14--------16-14--16-14-13-------| 
D|----------------------------------------------------------| x 1
A|----------------------------------------------------------|
E|----------------------------------------------------------|

KEYBOARD SOLO 

INSTRUMENTAL SECTION:
e|-------------------------|
B|-------------------------|
G|-------------------------| 
D|--7-7-7-7-7-7-7-7--------| x 16
A|--7-7-7-7-7-7-7-7--------|
E|--5-5-5-5-5-5-5-5--------|

CHORUS: 
Part 1:

e|-----------------14-16-14-------------------------------|
B|-----------14-17----------17-14-------------------------|
G|-----14-16----------------------15----------------------| x 1
D|--------------------------------------------------------|
A|--------------------------------------------------------|
E|--------------------------------------------------------|

On the second time, add the small riff on the end.
e|-----------------14-16-14-----------------------------------------|
B|-----------14-17----------17-14---------17-14---------------------|
G|-----14-16----------------------15------------16-14--16-14-13-----| x 1
D|------------------------------------------------------------------|
A|------------------------------------------------------------------|
E|------------------------------------------------------------------|

e|-----------------14-16-14-------------------------------|
B|-----------14-17----------17-14-------------------------|
G|-----14-16----------------------15----------------------| x 1
D|--------------------------------------------------------|
A|--------------------------------------------------------|
E|--------------------------------------------------------|

You then repeat Part 1 (once) and this after... 
e|----------------------------------------------------------|
B|-----------14-----------------17-14-----------------------|
G|-----14-16----16-14-16-11-14--------16-14--16-14-13-------| 
D|----------------------------------------------------------| x 1
A|----------------------------------------------------------|
E|----------------------------------------------------------|

WHOLE CHORUS x 2 

END ON A MINOR 

Any questions email me at jordanvowlez@live.co.uk :) 

Tap to rate this tab
 
# A B C D E F G H I J K L M N O P Q R S T U V W X Y Z