Song name
# A B C D E F G H I J K L M N O P Q R S T U V W X Y Z

Mgmt - Kids Acoustic tab

-------------------------------------------------------------------------------
                             KIDS (acoustic) - MGMT
-------------------------------------------------------------------------------
Tabbed by: Freddie Macauley
Email: fmacauley2@gmail.com

Tuning: Standard
Capo on the 4th fret, all notes relative to the capo.


Intro/Verse 1/Chorus 1:

Play this 3 times
e|---------------------2-----4---2--0---------------------------------------|
B|-----------2---5---------------------2--------2--------0-----0---0--------|
G|---2---4---------------2-------2------------2-----2--------4-------4------|
D|-----4---4---4---4---0------------0--2----2--------------2-----------2----|
A|----------------------------------------0-------0---0---------------------|
E|-2-----------------------------------------------------4-------4----------|

Then this 1 time
e|--------------------------------------------------------------------|
B|---------2-------------------------------2----------0-----0---0-----|
G|-2---4-------4----2---4-2-------2--2---2-----2----------4-------4---|
D|---4---4---4---4--0-0-----0-4-0------2---------2------2-----------2-|
A|-----------------------------------0-------0-----0------------------|
E|-2--------------------------------------------------4-------4-------|

Repeat these 4 bars for the whole of the intro and first verse and chorus and for play 
all the last 2 bars of these 4 once at the start of the next 'riff'

Then for the 'riff' (all 4 bars twice) and then for chorus 2 play this:

This times 3
e|-2-2-2-2-2-4-2-0-x-|--0--0--0-0--0--0--0-0-|
B|-2-2-2-5-3-3-3-3-2-|--2--2--2-2--x--x--x-x-|
G|-2-4-2-2-2-2-2-2-2-|--2--2--2-2--4--4--4-4-|
D|-4-4-4-4-0-0---0-0-|--2--2--2-2--2--2--2-2-|
A|-------------------|--0--0--0-0--x--x--x-x-|
E|-------------------|-------------4--4--4-4-|

Then this once

e|-2-2-2-2-2-2-2-x--|--0--0--0-0-0--0--0--0-0-|
B|-2-2-2-2-2-2-2-2--|--2--2--2-2-2--x--x--x-x-|
G|-2-4-x-4-2-4-2-2--|--2--2--2-2-2--4--4--4-4-|
D|-4-4-4-4-4-4-4-0--|--2--2--2-2-2--2--2--2-2-|
A|------------------|--0--0--0-0-0--x--x--x-x-|
E|------------------|---------------4--4--4-4-|

For verse 2:

Strum these chords:
  F#m   D    A   E/G#
e|-2----2----0----0----|
B|-2----3----2----x----|
G|-2----2----2----4----|
D|-4----0----2----2----|
A|-4---------0----x----|
E|-2--------------4----|

with a strumming pattern:

Down, muted up, down, up, down, up
The first and third down strokes are held slightly longer than the rest.

Then repeat the chorus, with either the strumming pattern of verse 2 or chorus 2.
Finally repeat the first 4 bars once and repeat chorus 2.
Tap to rate this tab
# A B C D E F G H I J K L M N O P Q R S T U V W X Y Z