Song name
# A B C D E F G H I J K L M N O P Q R S T U V W X Y Z

Mgmt - Kids Acoustic tab

                             MGMT - Kids acoustic

Tabbed by: laurrawr
E-mail: laurabrown23@hotmail.co.uk

Tuning: standard, capo on 5

This is how I personally play it and I worked it out from a combination of 
watching YouTube videos and my own ideas. I know there's a few versions around but 
I thought I'd add mine too (:



Intro:

e|--------------------------0-----2--0---------------------------------------|
B|--------------0-----3--------------------3--0-----------0------------------|
G|--0-----2--------------------------------------------0-----0---------------|
D|--------2--------------------2--------------------0-----------0------------|
A|-----2-----2-----2-----2--3-----------3--------2-----------------2---------|
E|--0-----------------------------------------3------------------------------|

e|----------------------------|
B|--------------0-------------|
G|--2--------2-----2----------|
D|--------0-----------0-------|
A|-----0-----------------0----|
E|--2-------------------------|

e|--------------------------0-----2--0---------------------------------------|
B|--------------0-----3--------------------3--0-----------0------------------|
G|--0-----2--------------------------------------------0-----0---------------|
D|--------2--------------------2--------------------0-----------0------------|
A|-----2-----2-----2-----2--3-----------3--------2-----------------2---------|
E|--0-----------------------------------------3------------------------------|

e|----------------------------|
B|--------------0-------------|
G|--2--------2-----2----------|
D|--------0-----------0-------|
A|-----0-----------------0----|
E|--2-------------------------|

e|---------------------------------------------------------------------------|
B|--------------0--------------------------------------0---------------------|
G|--0-----2-----------2--0-----2--0--------0--------0-----0------------------|
D|--------2-----------------2-----------2--------0-----------0---------------|
A|-----2-----2-----2-----3-----------3--------2-----------------2------------|
E|--0--------------------------------------3---------------------------------|

e|----------------------|
B|--1--0----------------|
G|--------2--0--2--0----|
D|----------------------|
A|----------------------|
E|--2-------------------|


Verse 1:


e|--------------------------0-----2--0---------------------------------------|
B|--------------0-----3--------------------3--0-----------0------------------|
G|--0-----2--------------------------------------------0-----0---------------|
D|--------2--------------------2--------------------0-----------0------------|
A|-----2-----2-----2-----2--3-----------3--------2-----------------2---------|
E|--0-----------------------------------------3------------------------------|

e|----------------------------|
B|--------------0-------------|   
G|--2--------2-----2----------|    X 4
D|--------0-----------0-------|
A|-----0-----------------0----|
E|--2-------------------------|


Chorus:


e|--------------------------0-----2--0---------------------------------------|
B|--------------0-----3--------------------3--0-----------0------------------|
G|--0-----2--------------------------------------------0-----0---------------|
D|--------2--------------------2--------------------0-----------0------------|
A|-----2-----2-----2-----2--3-----------3--------2-----------------2---------|
E|--0-----------------------------------------3------------------------------|

e|----------------------------|
B|--------------0-------------|
G|--2--------2-----2----------|    X 3
D|--------0-----------0-------| 
A|-----0-----------------0----|
E|--2-------------------------|

e|--------------------------0-----2--0---------------------------------------|
B|--------------0-----3--------------------3--0-----------0------------------|
G|--0-----2--------------------------------------------0-----0---------------|
D|--------2--------------------2--------------------0-----------0------------|
A|-----2-----2-----2-----2--3-----------3--------2-----------------2---------|
E|--0-----------------------------------------3------------------------------|

e|----------------------|
B|--1--0----------------|
G|--------2--0--2--0----|
D|----------------------|
A|----------------------|
E|--2-------------------|


Interlude between chorus and verse:


e|---------------------------------------------------------------------------|
B|--------------0--------------------------------------0---------------------|
G|--0-----2-----------2--0-----2--0--------0--------0-----0------------------|
D|--------2-----------------2-----------2--------0-----------0---------------|
A|-----2-----2-----2-----3-----------3--------2-----------------2------------|
E|--0--------------------------------------3---------------------------------|

e|----------------------|
B|--1--0----------------|
G|--------2--0--2--0----|
D|----------------------|
A|----------------------|
E|--2-------------------|


Verse 2:


e|--------------------------0-----2--0---------------------------------------|
B|--------------0-----3--------------------3--0-----------0------------------|
G|--0-----2--------------------------------------------0-----0---------------|
D|--------2--------------------2--------------------0-----------0------------|
A|-----2-----2-----2-----2--3-----------3--------2-----------------2---------|
E|--0-----------------------------------------3------------------------------|

e|----------------------------|
B|--------------0-------------|
G|--2--------2-----2----------|
D|--------0-----------0-------|
A|-----0-----------------0----|
E|--2-------------------------|

e|--------------------------0-----2--0---------------------------------------|
B|--------------0-----3--------------------3--0------------------------------|
G|--0-----2--------------------------------------------0---------------------|
D|--------2--------------------2--------------------0-------0-----------------|
A|-----2-----2-----2-----2--3-----------3--------2---------------------------|
E|--0-----------------------------------------3------------------------------|

e|----------------------------|
B|--------------0-------------|
G|--2--------2----------------|
D|--------0-------------------|
A|-----0----------------------|
E|--2-------------------------|

e|--------------------------0-----2--0---------------------------------------|
B|--------------0-----3--------------------3--0-----------0------------------|
G|--0-----2--------------------------------------------0-----0---------------|
D|--------2--------------------2--------------------0-----------0------------|
A|-----2-----2-----2-----2--3-----------3--------2-----------------2---------|
E|--0-----------------------------------------3------------------------------|

e|----------------------------|
B|--------------0-------------|
G|--2--------2-----2----------|
D|--------0-----------0-------|
A|-----0-----------------0----|
E|--2-------------------------|

e|---------------------------------------------------------------------------|
B|--------------0--------------------------------------0---------------------|
G|--0-----2-----------2--0-----2--0--------0--------0-----0------------------|
D|--------2-----------------2-----------2--------0-----------0---------------|
A|-----2-----2-----2-----3-----------3--------2-----------------2------------|
E|--0--------------------------------------3---------------------------------|

e|----------------------------|
B|--------------0-------------|
G|--2--------2-----2----------|
D|--------0-----------0-------|
A|-----0-----------------0----|
E|--2-------------------------|


Chorus 2:


e|--------------------------0-----2--0---------------------------------------|
B|--------------0-----3--------------------3--0-----------0------------------|
G|--0-----2--------------------------------------------0-----0---------------|
D|--------2--------------------2--------------------0-----------0------------|
A|-----2-----2-----2-----2--3-----------3--------2-----------------2---------|
E|--0-----------------------------------------3------------------------------|

e|----------------------------|
B|--------------0-------------|
G|--2--------2-----2----------|    X 3
D|--------0-----------0-------| 
A|-----0-----------------0----|
E|--2-------------------------|

e|--------------------------0-----2--0---------------------------------------|
B|--------------0-----3--------------------3--0-----------0------------------|
G|--0-----2--------------------------------------------0-----0---------------|
D|--------2--------------------2--------------------0-----------0------------|
A|-----2-----2-----2-----2--3-----------3--------2-----------------2---------|
E|--0-----------------------------------------3------------------------------|

e|----------------------|
B|--1--0----------------|
G|--------2--0--2--0----|
D|----------------------|
A|----------------------|
E|--2-------------------|


Bridge:

You could really do anything here but what I do is strum each of these chords once 
and sing the melody (do do do do etc) then slowly build up to more strumming into a rhythm

Em  C   G   D/F#

And then back into the chorus strumming the chords! 


At the end I normally do an outro of this:

e|---------------------------------------------------------------------------|
B|--------------0--------------------------------------0---------------------|
G|--0-----2-----------2--0-----2--0--------0--------0-----0------------------|
D|--------2-----------------2-----------2--------0-----------0---------------|
A|-----2-----2-----2-----3-----------3--------2-----------------2------------|
E|--0--------------------------------------3---------------------------------|

e|----------------------|
B|--1--0----------------|
G|--------2--0--2--0----|
D|----------------------|
A|----------------------|
E|--2-------------------|

And then end on a final strum of G




Enjoy (:
Tap to rate this tab
# A B C D E F G H I J K L M N O P Q R S T U V W X Y Z